Song name
# A B C D E F G H I J K L M N O P Q R S T U V W X Y Z

Seether - Innocence tab

This is a great B-Side from Karma and Effect and one of my favourite Seether songs. We
have a low quality version, but maybe the next year the band will release a Rarities' CD,
we'll be able to get a good quality version of this songs.

First of all, I don't know how to play the solo and the bridge part, so I'll post here
rythm section, basically.
I hope it helps! (Bachi_86 helped me to figure out some parts of the song).

Tunning: Drop Db (Drop D and 1/2 step down).

Intro/Verse
____________

D#|-----------------------------|
A#|-----------------------------|
F#|-----------------------------|
C#|--2-2-2--3-3-3-3--2----------|
G#|--2-2-2--3-3-3-3--2----------|
C#|--2-2-2--3-3-3-3--2----------|

D#|----------------------------------------------|
A#|----------------------------------------------|
F#|----------------------------------------------|
C#|--0~--3-5-3--2~--------7~--10-12-10--9~-------|
G#|----------------------------------------------|
C#|----------------------------------------------|


Chorus      (I'm not sure of the times you have to play each chord)
________

D#|-0-0-0-0---------------------------------------|
A#|-3-3-3-3---------------------------------------|
F#|-2-2-2-2---5-5-5---2~--2-2-2--5-5-5--4---------|
C#|-0-0-0-0---5-5-5---2~--2-2-2--5-5-5--4---------|
G#|-----------3-3-3---0~--0-0-0--3-3-3--2---------|
C#|-----------------------------------------------|

You can play it in another way:

D#|-------------------------------------------------------|
A#|-------------------------------------------------------|
F#|-------------------------------------------------------|
C#|-12-12-12-12--10-10-10--7~-7-7-7--10-10-10--9----------|
G#|-12-12-12-12--10-10-10--7~-7-7-7--10-10-10--9----------|
C#|-12-12-12-12--10-10-10--7~-7-7-7--10-10-10--9----------|

____________________________________________________________

I'll try to figure out the solo and the brige, but I guess that's similar to the 2n part 
the verse.
Tap to rate this tab
# A B C D E F G H I J K L M N O P Q R S T U V W X Y Z