Seether - Fine Again Acoustic tab

Seether - Fine again 
Made by kennykiller95
This is my first tab. But I'm pretty sure it's totally right. 

   INTRO

e|-------------------------2-3-3-3---------|
B|-------------------------3-3-3-3---------|
G|-------------------------2-2-2-2---------|    X2
D|------4-------7-------2------------------|
A|----4-------7-------2--------------------|
E|--2-----2/5-----5/0----------------------|

   VERSE

e|-2-2--0-0-0-0--0-0--2-2-2-2-------|
B|-2-2--0-0-0-0--0-0--3-3-3-3-------|
G|-2-2--2-2-2-2--0-0--2-2-2-2-------|    
D|-4-4--2-2-2-2--2-2--0-0-0-0-------|      X8
A|-4-4--0-0-0-0--2-2--0-0-0-0-------|
E|-2-2--0-0-0-0--0-0--0-0-0-0-------|

It seems like every dayís the same 
and Iím left to discover on my own 
It seems like everything is gray 
and thereís no color to behold 
They say itís over and Iím fine again, yeah 
Try to stay sober feels like Iím dying here 

   CHORUS

e|-2-2-2-2--2-2-2-2--2-2-2-2--0-0-0-0----|
B|-2-2-2-2--3-3-3-3--2-2-2-2--0-0-0-0----|
G|-2-2-2-2--2-2-2-2--4-4-4-4--0-0-0-0----|
D|-4-4-4-4--0-0-0-0--4-4-4-4--2-2-2-2----|         X4
A|-4-4-4-4--0-0-0-0--2-2-2-2--2-2-2-2----|
E|-2-2-2-2--0-0-0-0--2-2-2-2--0-0-0-0----|

And I am aware now of how 
everythingís gonna be fine one day 
Too late, Iím in hell I am prepared now, 
seems everyoneís gonna be fine 
One day too late, just as well 

    VERSE 2

e|-2-2--0-0-0-0--0-0--2-2-2-2-------|
B|-2-2--0-0-0-0--0-0--3-3-3-3-------|
G|-2-2--2-2-2-2--0-0--2-2-2-2-------|    
D|-4-4--2-2-2-2--2-2--0-0-0-0-------|      X6
A|-4-4--0-0-0-0--2-2--0-0-0-0-------|
E|-2-2--0-0-0-0--0-0--0-0-0-0-------|

I feel the dream in me expire 
and thereís no one left to blame it on 
I hear you label me a liar 
Ďcause I canít seem to get this through 
You say itís over, I can sigh again, yeah 
Why try to stay sober when Iím dying here 

   CHORUS

e|-2-2-2-2--2-2-2-2--2-2-2-2--0-0-0-0----|
B|-2-2-2-2--3-3-3-3--2-2-2-2--0-0-0-0----|
G|-2-2-2-2--2-2-2-2--4-4-4-4--0-0-0-0----|
D|-4-4-4-4--0-0-0-0--4-4-4-4--2-2-2-2----|         X4
A|-4-4-4-4--0-0-0-0--2-2-2-2--2-2-2-2----|
E|-2-2-2-2--0-0-0-0--2-2-2-2--0-0-0-0----|

And I am aware now of how 
everythingís gonna be fine one day 
Too late, Iím in hell I am prepared now, 
seems everyoneís gonna be fine 
One day too late, just as well 

   BRIDGE

e|-----2-----2------------------------|
B|---3-----3-----3--------------------|
G|-2-----2-----2-------4-----4--------|
D|-------------------4-----4-----4----|        X4
A|-----------------2-----2-----2------|
E|------------------------------------|

And Iím not scared now. 
I must assure you, 
youíre never gonna get away 
And Iím not scared now. 
And Iím not scared now. NoÖ 

   SOLO

e|-2-2-2-2--2-2-2-2--2-2-2-2--0-0-0-0----|
B|-2-2-2-2--3-3-3-3--2-2-2-2--0-0-0-0----|
G|-2-2-2-2--2-2-2-2--4-4-4-4--0-0-0-0----|
D|-4-4-4-4--0-0-0-0--4-4-4-4--2-2-2-2----|         X2
A|-4-4-4-4--0-0-0-0--2-2-2-2--2-2-2-2----|
E|-2-2-2-2--0-0-0-0--2-2-2-2--0-0-0-0----|

   CHORUS

e|-2-2-2-2--2-2-2-2--2-2-2-2--0-0-0-0----|
B|-2-2-2-2--3-3-3-3--2-2-2-2--0-0-0-0----|
G|-2-2-2-2--2-2-2-2--4-4-4-4--0-0-0-0----|
D|-4-4-4-4--0-0-0-0--4-4-4-4--2-2-2-2----|         X8
A|-4-4-4-4--0-0-0-0--2-2-2-2--2-2-2-2----|
E|-2-2-2-2--0-0-0-0--2-2-2-2--0-0-0-0----|

I am aware now of how 
everythingís gonna be fine one day 
Too late, Iím in hell 
I am prepared now 
seems everyoneís gonna be fine 
One day too late, just as well 
I am prepared now, 
seems everythingís gonna be fine for me 
For me; for myself. 
For me, for me, for myself 
For me, for me, for myself 


That's it. For any comments you can e-mail me at badboymarco@yahoo.de
Tap to rate this tab
 
# A B C D E F G H I J K L M N O P Q R S T U V W X Y Z