Song name
# A B C D E F G H I J K L M N O P Q R S T U V W X Y Z

Seether - Rise Above This Acoustic tab

Rise Above This Acoustic Tab by Seether
Tabbed by : Adan S.
Myspace email: fightengator904@yahoo.com
Username: hero904

| /  slide up
| \  slide down
| h  hammer-on
| p  pull-off
| ~  vibrato
| +  harmonic
| x  Mute note

Intro
e|----------------------------------------------------------------------|
B|----------------------------------------------------------------------|
G|----------------------------------------------------------------------|
D|----------------------------------------------------------------------|
A|---2--X7----4--X3-------------------2--7x-----------------------------|
E|---3--------5----------5-5-5/9\7----3--------5--5--12\-10-------------|


Verse Chords
e|----------------------------------------------------------------------|
B|----------------------------------------------------------------------|
G|--6-----7-----6-----9----7--------------------------------------------|
D|-------------------------5--------------------------------------------|
A|--4-----5-----4-----7----5--------------------------------------------|
E|-------------------------5--------------------------------------------|

Chorus Chords
e|----------------------------------------------------------------------|
B|---3------------------------------------------------------------------|
G|---2-------7----------------------------------------------------------|
D|---0-------5----------------------------------------------------------|
A|---0-------5----------------------------------------------------------|
E|-----------5----------------------------------------------------------|

solo
e|---------------------------------------------------------------------17-|b
B|------------------------------------------------------------------------|
G|--2\14---------------------------14-(14)/16-----------------------------|
D|----------14--16----14\12--12----------------14h16-----16--14---12------|
A|------------------------------------------------------------------------|
E|------------------------------------------------------------------------|

e|---14h15h14--------------17b-----14h15h14-----------------------------|
B|--------------15------------------------------15b---------------------|
G|--------------------14------------------------------------------------|
D|----------------------------------------------------------------------|
A|----------------------------------------------------------------------|
E|----------------------------------------------------------------------|

Bridge
e|-------------------------------------------------------------------------|
B|-------------------------------------------------------------------------|
G|-------------------------------------------------------------------------|
D|--4-------5---7--7-----------------------------6-6-6-------------------7-|
A|--5--X23--5---5--5--7-7--5-5--5-5-5-5--5--5-5--4-4-4--5/7--7--5-----5--5-|
E|--------------------7-7--5-5--5-5-5-5--0--0-0---------5/7--7--5-X6--0--0-|

e|----------------------------------------------------------------------|
B|----------------------------------------------------------------------|
G|----------------------------------------------------------------------|
D|--7--7--5-5--5--------------------------------------------------------|
A|--5--5--4-4--4--------------------------------------------------------|
E|----------------------------------------------------------------------|

Then you repeat the intro as outro. So if you like comment or rate.
Tap to rate this tab
 
# A B C D E F G H I J K L M N O P Q R S T U V W X Y Z