Song name
# A B C D E F G H I J K L M N O P Q R S T U V W X Y Z

Seether - Fmlyhm tab

-------------------------------------------------------------------------------
			     FMLYHM - Seether
-------------------------------------------------------------------------------
Tabbed by: Ricky
Email: CollapseOfAir@aim.com

Tuning: Drop C

Intro/Verse pt.1
D|----2~---------------------------------------------------------------------|
A|--0~-----------------------------------------------------------------------|
F|---------------------------------------------------------------------------|
C|---------------------------------------------------------------------------|
G|---------------------------------------------------------------------------|
C|---------------------------------------------------------------------------|
Easy Enough, huh? Repeat as Necessary 

Verse Pt.2 (Distorted)     Ending of Pt.2
D|---------------------|-----------------------------------------------------|
A|---------------------|-----------------------------------------------------|
F|---------------------|-----------------------------------------------------|
C|--9-9-9--9\----------|---0---7---------------------------------------------|
G|--9-9-9--9\----------|---0---7---------------------------------------------|
C|--9-9-9--9\----------|---0---7---------------------------------------------|
    x x x  
Again, very easy, repeat as necessary

Prechorus
D|---------------------------------------------------------------------------|
A|---------------------------------------------------------------------------|
F|-----7-------4-------7-----------------------------------------------------|
C|------5-5-----2-2-----5-5-2-2-2-2-2-2-2-2----------------------------------|
G|---5---5---2---2---5---5--2-2-2-2-2-2-2-2----------------------------------|
C|--5-5-----2-2-----5-5-----2-2-2-2-2-2-2-2----------------------------------|
                            x x x x x x x x

Chorus 
D|---------------------------------------------------------------------------|
A|---------------------------------------------------------------------------|
F|--4-4-4-4---7-7-7----------------------------------------------------------|
C|--4-4-4-4---7-7-7----5-5-5-5--2-2-2----------------------------------------|
G|--2-2-2-2---5-5-5----5-5-5-5--2-2-2----------------------------------------|
C|---------------------5-5-5-5--2-2-2----------------------------------------|
The Rhythm is easy, just listen to the song and Figure it out

Bridge
D|---------------------------------------------------------------------------|
A|---------------------------3-------------------------3---------------------|
F|-----------7-/-9-----------2-----------7-/-9---------2---------------------|
C|--5-4-2-0--7-/-9--7-9---7--0--5-4-2-0--7-/-9--7-9----0---------------------|
G|--5-4-2-0--5-/-7--7-9---7--0--5-4-2-0--5-/-7--7-9----0---------------------|
C|--5-4-2-0---------7-9---7--0--5-4-2-0---------7-9----0---------------------|

Bridge(cont.)
D|---------------------------------------------------------------------------|
A|---------------------------3-----------------------------------------------|
F|-----------7-/-9-----------2----------------4~-----------------------------|
C|--5-4-2-0--7-/-9--7-9---7--0--5-4-2-0-4-2-0-4~-----------------------------|
G|--5-4-2-0--5-/-7--7-9---7--0--5-4-2-0-4-2-0-2~-----------------------------|
C|--5-4-2-0---------7-9---7--0--5-4-2-0-4-2-0--------------------------------|

Breakdown
D|---------------------------------------------------------------------------|
A|---------------------------------------------------------------------------|
F|--------------------------------------------------------------------7------|
C|-----------------------------------------------------------------7--7------|
G|-----------------------------------------------------------------7--5------|
C|--9-9-9-9-11-12-11-9-9-9-9-9-7-9-10-9-9-9-9-9-11-12-11-9-9-9-9-9-7---------|


Breakdown(cont.)
D|---------------------------------------------------------------------------|
A|---------------------------------------------------------------------------|
F|---------------------------------------------------------------------------|
C|-----------------------------------------------------------------7---------|
G|-----------------------------------------------------------------7---------|
C|--9-9-9-9-11-12-11-9-9-9-9-9-7-9-10-9-9-9-9-9-11-12-11-9-9-9-9-9-7---------|

Final Chorus 
D|---------------------------------------------------------------------------|
A|---------------------------------------------------------------------------|
F|--4-4-4-4---7-7-7------------------------------------4~--------------------|
C|--4-4-4-4---7-7-7----5p-4-4-4--4-5p-4-4-4--4-5-7-5-4-4~--------------------|
G|--2-2-2-2---5-5-5----5p-4-4-4--4-5p-4-4-4--4-5-7-5-4-2~--------------------|
C|---------------------5p-4-4-4--4-5p-4-4-4--4-5-7-5-4-----------------------|
The Ending is the only part im not 100% on. If its wrong, oh well.

| /  slide up
| \  slide down
| h  hammer-on
| p  pull-off
| ~  vibrato
| +  harmonic
| x  Mute note
===============================================================================
Tap to rate this tab
 
# A B C D E F G H I J K L M N O P Q R S T U V W X Y Z