Song name
# A B C D E F G H I J K L M N O P Q R S T U V W X Y Z

Seether - Tied My Hands tab

Tune a half step down from standard Eb Ab Db Gb Bb eb
The intro is not perfect, but it is damn close.  There are two guitars and the second 
blends in real well so its hard to distinguish them at times.
The verse isn't perfect, but I combined the two guitar parts so that it sounds good on 
guitar and along with vocals
Intro
Eb----------------------------------------------0-----------|
Bb----0---0---------0---0--------0---0--------------0-------|
Gb------0----0--------0------------0----0---------0----0----|
Db-------------------------0--2--------------2--------------|
Ab--2------------2-----------3--------------3---------------|
Eb-0------------0-------------------------------------------|

Eb----------------------------------------------0---3-------|
Bb----0---0---------0---0--------0---0--------------3-------|
Gb------0----0--------0---0--------0---0---------0----0-----|
Db----------------------------2--------------2--------------|
Ab--2------------2-----------3--------------3---------------|
Eb-0------------0-------------------------------------------|


Eb--------------------------------------------------3-------|
Bb----0---0---------0---0--------0---0----------0-----------|
Gb------0----0--------0------------0----0---------0----0----|
Db-------------------------0--2--------------2--------------|
Ab--2------------2-----------3--------------3---------------|
Eb-0------------0-------------------------------------------|

Eb--------------------------------------------------3-------|
Bb----0---0---------0---0--------0---0---------0----3-------|
Gb------0----0--------0---0--------0---0---------0----0-----|
Db----------------------------2--------------2--------------|
Ab--2------------2-----------3--------------3---------------|
Eb-0------------0-------------------------------------------|

Verse 1 and 2
Eb----------------------------------3------------3----------|
Bb----0---0---------0---0-----------3------------3---0------|
Gb------0----0--------0---0-------0------------0-------0----|
Db------------------------------2--------0---2--------------|
Ab--2------------2------------3------------3----------------|
Eb-0------------0-------------------------------------------|
Verse 1-Can you remember when...   When we used to cry
Verse 2-Can you remember when...   When we used to laugh

Eb--------------------------------------------------3-------|
Bb----0---0---------0---0--------0---0----------0-----------|
Gb------0----0--------0------------0----0---------0----0----|
Db-------------------------0--2--------------2--------------|
Ab--2------------2-----------3--------------3---------------|
Eb-0------------0-------------------------------------------|
Verse 1           Never in distress
Verse 2        At those mistakes we made
Eb----------------------------------3------------3----------|
Bb----0---0---------0---0-----------3------------3---(0)----|
Gb------0----0--------0---0-------0------------0-------(0)--|
Db------------------------------2--------0---2--------------|
Ab--2------------2------------3------------3----------------|
Eb-0------------0-------------------------------------------|
Verse 1- Or can you picture when...        we used to pride...
Verse 2- Or can you picture then...        How we used to drive...

Eb--------------------------------------------------3-------|
Bb----0---0---------0---0--------0---0----------0-----------|
Gb------0----0--------0------------0---0----------0----0----|
Db-------------------------0--2--------------2--------------|
Ab--2------------2-----------3--------------3---------------|
Eb-0------------0-------------------------------------------|
Verse 1         Ourselves on neatness
Verse 2        And never reach the end

Chorus
use these chords and figure out the strumming (should be easy)
Eb--x--- ---x--|
Bb--x--- ---x--|
Gb--9--- ---9--| < strum the strings open one time when you change chords
Db--9--- --10--|
Ab--7--- --10--|
Eb--0--- ---8--|I don't know the names of these two chords so call them
   C1      C2

  C1                      C2                               C1
Cause I can't understand,          what you meant to me
                  C2
You made me wild,                  then you tied my hands


Bridge
Eb----------------------------------------------0-----------|
Bb----0---0---------0---0--------0---0--------------0-------|
Gb------0----0--------0------------0----0---------0----0----|
Db-------------------------0--2--------------2--------------|
Ab--2------------2-----------3--------------3---------------|
Eb-0------------0-------------------------------------------|
                           you tied my hands
Eb----------------------------------------------0---3-------|
Bb----0---0---------0---0--------0---0--------------3-------|
Gb------0----0--------0---0--------0---0---------0----0-----|
Db----------------------------2--------------2--------------|
Ab--2------------2-----------3--------------3---------------|
Eb-0------------0-------------------------------------------|
                              ohhh ohhhh

First time go back to verse two (only the first time)

Pre-Chorus Play twice (Strum gently ad quietly)
Em                     C                     Em
But since you went away            Made me find

                 C
I have nothing to say

New chorus (play 2x)

Em                        C                            Em
Cause I can't understand            what you meant to me

                      C                                   Em
When you made me wild,                then you tied my hands

C                         Em                       C
You tied my hands,            tied my hands,          tied my hands,
    Em
tied my hands


 Outro
Eb----------------------------------------------0-----------|
Bb----0---0---------0---0--------0---0--------------0-------|
Gb------0----0--------0------------0----0---------0----0----|
Db-------------------------0--2--------------2--------------|
Ab--2------------2-----------3--------------3---------------|
Eb-0------------0-------------------------------------------|

Eb----------------------------------------------0---3-------|
Bb----0---0---------0---0--------0---0--------------3-------|
Gb------0----0--------0---0--------0---0---------0----0-----|
Db----------------------------2--------------2-----------2--|
Ab--2------------2-----------3--------------3------------3--|
Eb-0------------0-------------------------------------------|
               ...You tied my hands

If it is confusing to follow
Intro 1x
Verse One-1x
Chorus 1x
Bridge 1x
Verse Two-1x
Chorus 1x
Bridge 1x
Pre-Chorus 2x
New Chorus 2x
Outro 1x

I'm sorry if it is a little confusing but the New Chorus is the same words just with 
chords.
Tap to rate this tab
# A B C D E F G H I J K L M N O P Q R S T U V W X Y Z