Song name
# A B C D E F G H I J K L M N O P Q R S T U V W X Y Z

Seigmen - Monument tab

Help us improve GuitareTab! Take a short survey!
|--------------------------------------------------------------------------|
|--------------------------------------------------------------------------|
|--------------------------------------------------------------------------|
|---0/2--2h3----------------0/2--2h3---------------0/2--2h3----------------|
|---------------2----------------------1-----------------------2/7---------|
|-0----0-----0------------0----0-----0-----------0-----0----0--------------|

|--------------------------------------------------------------------------|
|--------------------------------------------------------------------------|
|--------------------------------------------------------------------------|
|----0/2---2h3----3h2------------------------------------------------------|
|------------------------5--3--2-------------------------------------------|
|-0------0------0-----0----------------------------------------------------|

            gjr detta 3 ganger eller noe, s begynner sangen

|--------------------------------------------------------------------------|
|--------------------------------------------------------------------------|
|--------------------------------------------------------------------------|
|--------------------------------------------------------------------------|
|-0-----2------------------------------------------------------------------|
|-1-----0------------------------------------------------------------------|

                      har ikke orka  finne ut mere
Related for Monument tab