Song name
# A B C D E F G H I J K L M N O P Q R S T U V W X Y Z

Seigmen - In Limbo tab

Help us improve GuitareTab! Take a short survey!
-----------------------------------------------------------------------------
			     IN LIMBO - Seigmen
-----------------------------------------------------------------------------
Tabbed by: MarkusA
Email: reflex@kardemommeby.com

Tuning: Standard

Hope to get this updated to the whole song, when i get time to do it.



*Clean, with delay. let notes ring whenever possible*


e|-------------------|------------------|---------|-------|
B|-------------------|------------------|---------|-------|
G|-------------------|------------------|---------|-------|
D|-9-9-9/11---11/12--|--12/14----14/16--|-17------|-------|
A|-------------------|------------------|---------|-------|
E|-------------------|------------------|---------|-------|

e|----------------------|-------------------|
B|------------------15--|---------------17--|
G|----16-16-16-16-16----|-19-19-19-19-19----|
D|----------------------|-------------------|
A|----------------------|-------------------|
E|----------------------|-------------------|

e|-------------------|-----------------|------------------|
B|---------------19--|--20-19-20-20-17-|------10-12-------|
G|-21-21-21-21-21----|-----------------|------------------|
D|-------------------|-----------------|-"som en perle"---|
A|-------------------|-----------------|------------------|
E|-------------------|-----------------|------------------|


| /  slide up
| \  slide down
| h  hammer-on
| p  pull-off
| ~  vibrato
| +  harmonic
| x  Mute note
===============================================================================
Related for In Limbo tab