Song name
# A B C D E F G H I J K L M N O P Q R S T U V W X Y Z

Senses Fail - Cute When You Scream tab

tab by:run5home
email:bball10@ne.rr.com

Drop D tuning eBGDAD

------------------------------------------------------------------------------------
Guitar One
------------------------------------------------------------------------------------

Intro
e|-------------------|
 |-------------------|
 |-------------------|
 |-5~----8p5-7p5-5h7-|
 |-5~----------------|
D|-5~----------------|

Chorus - "Play with, my heart..." (X4)
e|--------------------------------------|
 |--------------------------------------|
 |--------------------------------------|
 |-55-8p7h8-555-8p7h8-555-8p7h8-111-333-|
 |-55-------555-------555-------111-333-|
D|-55-------555-------555-------111-333-|

Verse - "And all I know is your cute..."
e|----------------------------------------|
 |----------------------------------------|
 |-------------------33333333-------------|
 |-11111111-33333333-33333333-55555-33333-|
 |-11111111-33333333-11111111-55555-33333-|
D|-11111111-33333333----------55555-33333-|


Pre-Chorus - "You know that you are worthless..." (X2)
e|-------------------------------------|
 |-------------------------------------|
 |-------------------33333333----------|
 |-55555555-11111111-33333333-33333333-|
 |-55555555-11111111-11111111-33333333-|
D|-55555555-11111111----------33333333-|

Play Chorus
Play Verse
Play Pre-Chorus

Bridge
e|------------------------------------------------------|
 |------------------------------------------------------|
 |------------------------------------------------------|
 |-1~----3~----0~----8~--7~----1~----3~----0~----8~--7~-|
 |-1~----3~----0~----8~--7~----1~----3~----0~----8~--7~-|
D|-1~----3~----0~----8~--7~----1~----3~----0~----8~--7~-|

Bridge Cont. - "I'll take you, to the top, of this building..."
e|------------------------------------------------------|
 |------------------------------------------------------|
 |------------------------------------------------------|
 |-1-1111111111-33333333333-00000000000-8888888-7777777-|
 |-1-1111111111-33333333333-00000000000-8888888-7777777-|
D|-1-1111111111-33333333333-00000000000-8888888-7777777-|
PM   .......... ........... ........... ....... .......

Bridge Cont. - "The street, the street..."
e|------------------------------------------------|
 |------------------------------------------------|
 |------------------------------------------------|
 |-1-1111111111-33333333333-00000000000-8888888-7-|
 |-1-1111111111-33333333333-00000000000-8888888-7-|
D|-1-1111111111-33333333333-00000000000-8888888-7-|
PM   .......... ........... ...........

Ending - "You know that you are worthless..."
e|----------------------------------|
 |----------------------------------|
 |-------------------333x-----------|
 |-55555555-11111111-333x--33333333-|
 |-55555555-11111111-111x--33333333-|
D|-55555555-11111111-------33333333-|

Ending Cont. - "The games that you play princess..." (X2)
e|-------------------------------------|
 |-------------------------------------|
 |-------------------33333333----------|
 |-55555555-11111111-33333333-33333333-|
 |-55555555-11111111-11111111-33333333-|
D|-55555555-11111111----------33333333-|

Ending Cont.- "This time I win, so here's your kiss goodbye."
e|---------------------------|
 |---------------------------|
 |---------------------------|
 |-55--55--55--5-111-333-5-5-|
 |-55--55--55--5-111-333-5-5-|
D|-55--55--55--5-111-333-5-5-|

--------------------------------------------------------------------
Guitar Two
--------------------------------------------------------------------

Intro
e|-------------------|
 |-------------------|
 |-------8p5-7p5-5h7-|
 |-5~----------------|
 |-5~----------------|
D|-5~----------------|

Chorus - "Play with, my heart..."
e|--------------------------------------|
 |--------------------------------------|
 |----7p5h7-----7p5h7-----7p5h7---------|
 |-55-------555-------555-------111-333-|
 |-55-------555-------555-------111-333-|
D|-55-------555-------555-------111-333-|

Verse - "And all I know is, revenge is sweet..."
e|---------------------------------------------------|
 |---------------------------------------------------|
 |-333333-555-7777-555-8-7-3333333-555-77777-555555x-|
 |-xxxxxx-xxx-xxxx-xxx-x-x-xxxxxxx-xxx-xxxxx-xxxxxxx-|
 |-111111-333-5555-333-6/5-1111111-333-55555-333333x-|
D|---------------------------------------------------|

Pre-Chorus - "You know, that I am worthless..." (X2)
e|--------------------------------------------|
 |--------------------------------------------|
 |-33333333-88888888-77777777-5555555-888-777-|
 |-xxxxxxxx-xxxxxxxx-xxxxxxxx-xxxxxxx-xxx-xxx-|
 |-11111111-66666666-55555555-3333333-666/555-|
D|--------------------------------------------|

Repeat Chorus
Repeat Verse
Repeat Pre-Chorus

Bridge - "I'll take you, to the top, of this building..."
e|------------------------------------------------------|
 |------------------------------------------------------|
 |------------------------------------------------------|
 |-1~----3~----0~----8~--7~----1~----3~----0~----8~--7~-|
 |-1~----3~----0~----8~--7~----1~----3~----0~----8~--7~-|
D|-1~----3~----0~----8~--7~----1~----3~----0~----8~--7~-|

Bridge Cont. - "The street, the street..." (strumming not defined) (X2)
e|--------------------------|
 |--------------------------|
 |-3>----5>----7>----8>--7>-|
 |-x>----x>----x>----x>--x>-|
 |-1>----3>----5>----6>--5>-|
D|--------------------------|

Ending - "You know that you are worthless..."
e|-------------------------------------------|
 |-------------------------------------------|
 |-33333333-88888888-7-77x-555555555-888-777-|
 |-xxxxxxxx-xxxxxxxx-x-xxx-xxxxxxxxx-xxx-xxx-|
 |-11111111-66666666-5-55x-333333333-666-555-|
D|-------------------------------------------|

Ending Cont. - "The games that you play princess..."
e|-------------------------------------|
 |-------------------------------------|
 |-33333333-88888888-77777777-55555555-|
 |-xxxxxxxx-xxxxxxxx-xxxxxxxx-xxxxxxxx-
 |-11111111-66666666-55555555-33333333-|
D|-------------------------------------|

Ending Cont. - "This time I win, so here's your kiss goodbye."
e|---------------------------|
 |---------------------------|
 |---------------------------|
 |-55--55--55--5-111-333-5-5-|
 |-55--55--55--5-111-333-5-5-|
D|-55--55--55--5-111-333-5-5-|
Tap to rate this tab
# A B C D E F G H I J K L M N O P Q R S T U V W X Y Z