Guitaretab - guitar tabs
Song name
# A B C D E F G H I J K L M N O P Q R S T U V W X Y Z

Sevendust - Denial tab

Band - Sevendust
Song - Denial
Album - Home (1999)
Tuning - B,Gb,B,E,Ab,Db

Intro - Volume swells
|-----------------------------------------------------|
|-----------------------------------------------------|
|-----------------------------------------------------|
|------4---------4---------7----5----4----------------|
|-7---------7---------6-------------------6--6-6-6h7~-|
|-----------------------------------------------------|

Heavy Intro
|---------------------------------------|
|---------------------------------------|
|---------------------------------------|
|---------------------------------------|
|-5--------5--------5-------------------|
|---3--0-2---3--0-2---3--0-2-0-2b--0-2b-|

|---------------------------------------|
|---------------------------------------|
|---------------------------------------|
|------------------------------------2b-|
|-5--------5--------5-------------------|
|---3--0-2---3--0-2---3--0-2-0-2b--0----|

Verse
|----------------------------------------|
|----------------------------------------|
|----------------------------------------|
|-3\2----3\2----3\2----3\2------------2b-|
|-3\2----3\2----3\2----3\2---------------|
|-3\2----3\2----3\2----3\2--0-0-2b--0----|

Chorus
|------------------------------------------------|
|------------------------------------------------|
|-4--4--4--4--4--4--4--4--4--4--4--4--4--4--4--4-|
|-4--4--4--4--2--2--2--2--4--4--4--4--2--2--2--2-|
|-2--2--2--2--3--3--3--3--2--2--2--2--0--0--0--0-|
|-------------------------2--2--2--2--0--0--0--0-|
[ Tab from: http://www.guitaretab.com/s/sevendust/118748.html ]
|-------------------------------------------------------|
|-------------------------------------------------------|
|-4--4--4--4--4--4--4--4---------4--4--4--4--4--4--4--4-|
|-4--4--4--4--2--2--2--2-x-x-x-x-4--4--4--4--4--4--4--4-|
|-2--2--2--2--3--3--3--3-x-x-x-x-2--2--2--2--x--x--x--x-|
|------------------------x-x-x-x-2--2--2--2--4--4--4--4-|

Fill
|---------------------------------------|
|-17b--------------17b------------------|
|-x----------------x--------------------|
|-14b--------------14b---------------2b-|
|-----0-2-0--0-2-0-----0-2-0------------|
|-----0-2-0--0-2-0-----0-2-0-0-2b--0----|
      . . .  . . .     . . .

Play Verse

Play Chorus

Heavy Bridge
|----------------------------|
|----------------------------|
|----------------------------|
|-3\\--x-x-3\\------------2b-|
|-3\\--x-x-3\\---------------|
|-3\\--x-x-3\\--0-0-2b--0----|

Slower Bridge
|------------------------------------------------------------------|
|------------------------------------------------------------------|
|------------------------------------------------------------------|
|-4-------4-4-------4-4-------4-4-------------------7--5--4--5--4~-|
|----7-7-------7-7-------7-7-------7-7-6--6--6-6-7-----------------|
|------------------------------------------------------------------|

Play Chorus

End with
|---------------------------------|
|---------------------------------|
|-4~------------------------------|
|-4~------------------------------|
|-x-------------------------------|
|-4~------------------------------|

That's all and enjoy!

Related for Denial tab
Advertisement will be closed in 10 seconds