Song name
# A B C D E F G H I J K L M N O P Q R S T U V W X Y Z

Sevendust - Honesty tab

Help us improve GuitareTab! Take a short survey!
Band- Sevendust
Song- Honesty

Tuning: Drop B  (B F# B D# G# C#)


INTRO
|---------------------------------------------|
|---------------------------17----19--17------|
|---------18--19----18------------------------|
|-16------------------------------------------|
|---------------------------------------------|
|---------------------------------------------|



VERSE
|---------------------------------------------------------------------------------------|
|---------------------------------------------------------------5---7---5---------------|
|-------6--7----6-----------------------------------6--7----6---------------6-----------|
|-4-------------------------------------------4-----------------------------------------|
|---------------------------------------------------------------------------------------|
|---------------------------------------------------------------------------------------|
|
|
|---------------------------------------------------------------------------------------|
|-----------------------------------------------------------------------------12---10---|
|---------------------------------------------------------------------------------------|
|-9-------11---------12-----------------------9-------11--------12----------------------|
|-------------------------------12---10-------------------------------------------------|
|---------------------------------------------------------------------------------------|



|-----------------------------------------------------------------------5---------------|
|---------------------------------------------------------------5---7-------------------|
|-------6--7----6-----------------------------------6--7----6---------------------------|
|-4-------------------------------------------4-----------------------------------------|
|---------------------------------------------------------------------------------------|
|---------------------------------------------------------------------------------------|
|
|
|---------------------------------------------------------------------------------------|
|-----------------------------------------------------------------------------12---10---|
|---------------------------------------------------------------------------------------|
|-9-------11---------12-----------------------9-------11--------12----------------------|
|-------------------------------12---10-------------------------------------------------|
|---------------------------------------------------------------------------------------|



PRE CHORUS
|-------------------------------------------------------------------------|
|-----------6-6-6-6-7-7-7-----------------------6-6-6-6-7-7-7-------------| <- 2nd Guitar
|-------------------------------------------------------------------------|
|-------------------------------------------------------------------------|
|-0-0-0-----0-----0-0-0-0-----0-----0-0-0-0-----0-----0-0-0-0-----0-----0-|


|-------------------------------------------------------7-7-7-----7-7-7-7-|
|-----------6-6-6-6-7-7-7-----7-7-7-7-9-9-9-----9-9-9-9-------------------|
|-------------------------------------------------------------------------|
|-------------------------------------------------------------------------|
|-0-0-0-----0-----0-0-0-0-----0-----0-0-0-0-----0-----0-0-0-0-----0-----0-|



CHORUS
|------------------------------------7----------------------------------|
|-9----------------7-----------------7----------------5-----------------|
|-9----------------7-----------------5----------------5-----------------|
|-9----------------7----------------------------------5-----------------|


|-----------------------------------------------------------------------|
|-9----------------7-----------------5----------------0----0-0----2--2--|
|-9----------------7-----------------5----------------0----0-0----2--2--|
|-9----------------7-----------------5----------------0----0-0----2--2--|



Related for Honesty tab