Song name
# A B C D E F G H I J K L M N O P Q R S T U V W X Y Z

Seventh Day Slumber - Surrender tab

Seventh Day Slumber
Surrender
Tabbed by 48893

Tuning Drop C#
1 Eb
2 Bb
3 F#
4 C#
5 Ab
6 C#


\ = Slide Down
/ = Slide up
h = Hammer on
p = Pull off
^ = Bend
~ = Finger vibrato

(Not always sure about hammer ons and slides, I have tabbed the way I play)

_______________________________________

Intro

Gtr 1
Palm mute
 |-----------------------------------|
 |-----------------------------------|
 |-----------------------------------|
 |----4-----4-----4---4-----4-----4--|
 |------5-5---5-5---5---5-5---5-5----|
 |--2--------------------------------|

 |-----------------------------------|
 |-----------------------------------|
 |-----------------------------------|
 |----4-----4-----4---4-----4-----4--|
 |------5-5---5-5---5---5-5---5-5----|
 |--0--------------------------------|

 |-----------------------------------|
 |-----------------------------------|
 |-----------------------------------|
 |----4-----4-----4---4-----4-----4--|
 |------5-5---5-5---5---5-5---5-5----|
 |--2--------------------------------|

 |------------------
 |------------------
 |------------------
 |----4-----4-----4-  Break
 |------5-5---5-5---
 |--0---------------


_______________________________________

Riff

Gtr 1

 |------------------------------------------------------------|
 |----7-X-X-7-X-X-7-X-7-X-X-7----7---8\7--7----7---8\7--7--7--|
 |----X-X-X-X-X-X-X-X-X-X-X-X----X---X----X----X---X----X--X--|
 |----4-X-X-4-X-X-4-X-4-X-X-4----4---5\4--4----4---5\4--4--4--|
 |-----------------------------5---5---------5---5------------|
 |------------------------------------------------------------|

 |---------------------------------------------------------|
 |----7-X-X-7-X-X-7-X-7-X-X-7----7---8\7--7----7---8\7--7--|
 |----X-X-X-X-X-X-X-X-X-X-X-X----X---X----X----X---X----X--|
 |----4-X-X-4-X-X-4-X-4-X-X-4----4---5\4--4----4---5\4--4--|
 |-----------------------------5---5---------5---5---------|
 |---------------------------------------------------------|

Gtr 2

 |---------------------------------|
 |---------------------------------|
 |---------------------------------|
 |--0---2-2---2-2---2---2-2---2-2--|
 |--0---2-2---2-2---2---2-2---2-2--|
 |--0---2-2---2-2---2---2-2---2-2--|

 |---------------------------------|
 |---------------------------------|
 |---------------------------------|
 |--2---0-0---0-0---0---0-0---0-0--|
 |--2---0-0---0-0---0---0-0---0-0--|
 |--2---0-0---0-0---0---0-0---0-0--|

 |---------------------------------|
 |---------------------------------|
 |---------------------------------|
 |--0---2-2---2-2---2---2-2---2-2--|
 |--0---2-2---2-2---2---2-2---2-2--|
 |--0---2-2---2-2---2---2-2---2-2--|
                  
 |------------------------------------|
 |------------------------------------|
 |------------------------------------|
 |--2---0-0---0-0---0---0-0---0-0--0--|
 |--2---0-0---0-0---0---0-0---0-0--0--|
 |--2---0-0---0-0---0---0-0---0-0--0--|


_______________________________________

Verse (maybe not 100% correct, but very close, I play like this)

 |---------------------------------|
 |---------------------------------|
 |-------0-------0------0-------0--|
 |----5--------7------9-------7----|
 |--3--------5------7-------5------|
 |---------------------------------|  x2

 |--------------------------------------------|
 |-------------7-X-X-7-X-X-7-X-7-X-X-7-X-X-7--|
 |------0------X-X-X-X-X-X-X-X-X-X-X-X-X-X-X--|
 |----5--------4-X-X-4-X-X-4-X-4-X-X-4-X-X-4--|
 |--3-----------------------------------------|
 |--------------------------------------------|

_______________________________________

Chorus

Just the chords
 |---------------------|
 |---------------------|
 |---------------------|
 |--2--5--10--5--2--0--|
 |--2--5--10--5--2--0--|
 |--2--5--10--5--2--0--|   x2

+Riff

______________________________________

Solo
m = palm mute

 |---------------------------------------------|
 |---------------------------------------------|
 |------7-------7-4^4--------7---4^4----11^11--|
 |--4h5---5-4h5-------5--4h5---5-----m5--------|
 |---------------------------------------------|
 |---------------------------------------------|

   m-----------|   m---------|
 |--------------------------------|
 |--------10--------------10------|
 |----12----12--12~---12----12----|
 |--12--12----12----12--12----12~-|
 |--------------------------------|
 |--------------------------------|

 |--------------------------------------|
 |--------------------------------------|
 |--12-11---11h12---12---12-11---11h12--|
 |--------------------------------------|
 |--------------------------------------|
 |--------------------------------------|

 |------------------------------------------------------------|
 |------------------------------------------------------------|
 |--12---------12----11/12h14-11^11-9----9--------------------|
 |-------10h12----12-----------------------12----12-7----7-5--|
 |------------------------------------------------------------|
 |------------------------------------------------------------|

 |-----------------------------------------|
 |-----------------------------------------|
 |--12-------14-------12-------11^11-------|
 |-----12-------12-------12----------12\5--|
 |--------10-------10-------10-------------|
 |-----------------------------------------|

 |----------------------------------------------|
 |----------------------------------------------|
 |--12-11---11h12---12---14-12---12h14-14/16~~--|
 |----------------------------------------------|
 |----------------------------------------------|
 |----------------------------------------------|



Chords (same chords as in the chorus, different order and rythm)

10   2    5    0
x2

Ends on 10
_______________________________________

Last Chorus

Gtr 1

 |------------------------------------------------------|
 |-----------------------------13----13----13----13-----|
 |--11h12----12----12----12-----------------------------|
 |--------12----12----12----12----12----12----12----12--|
 |------------------------------------------------------|
 |------------------------------------------------------|

 |------------------------------------------------------|
 |------------------------------------------------------|
 |--11h12----12----12----12----14----14----11----11-----|
 |--------12----12----12----12----12----12----12----12--|
 |------------------------------------------------------|
 |------------------------------------------------------|

 |------------------------------------------------------|
 |-----------------------------13----13----13----13-----|
 |--11h12----12----12----12-----------------------------|
 |--------12----12----12----12----12----12----12----12--|
 |------------------------------------------------------|
 |------------------------------------------------------|

 |--------------------------------------------------------|
 |--------------------------------------------------------|
 |--11h12----12----12----12----14----14----11----11---12--|
 |--------12----12----12----12----12----12----12----12----|
 |--------------------------------------------------------|
 |--------------------------------------------------------|
Tap to rate this tab
# A B C D E F G H I J K L M N O P Q R S T U V W X Y Z