Song name
# A B C D E F G H I J K L M N O P Q R S T U V W X Y Z

Sex Bob-omb - Threshold tab

------------------------|
------------------------|
------------------------|
-5-5--9-8---------------|  x8
-3-3--7-6--5--5---------|
-----------3--3---------|

--------------------------------------------|
--------------------------------------------|
--------------------------------------------|
-8-8-8-8-8-8-8-8--7-7-7-7-------------------|
-6-6-6-6-6-6-6-6--5-5-5-5--8-8-8-8----------|
---------------------------6-6-6-6----------|

back to beginning


i did this by ear. it sounds much more correct to me than the other tab.
Tap to rate this tab
 
# A B C D E F G H I J K L M N O P Q R S T U V W X Y Z