Song name
# A B C D E F G H I J K L M N O P Q R S T U V W X Y Z

Sex Bob-omb - We Are Sex Bob-omb chords

Highlighted       Show chord diagrams
---------------------------------------------------------------------------
			                       WE ARE SEX BOB-OMB - Sex Bob-Omb
---------------------------------------------------------------------------
Email: hypedonmusic@yahoo.com

Tuning: Standard

Chords

       B      D       A       A9      E       F#
e |-------|-------|-------|-------|-------|--------|
B |-------|-------|-------|-------|-------|--------|
G |---4---|---7---|-------|---2---|---1---|--------|
D |---4---|---7---|---7---|---2---|---2---|---4----|
A |---2---|---5---|---7---|-------|---2---|---4----|
E |-------|-------|---5---|-------|-------|---2----|

-----------------------------------------------------------------------------------

Intro/Main chords:  
(B) x8  
(D) x2  
(A)  x1

When you play the D, make sure to add some breaks, and maybe add a couple of bends.

Verse

e |--------------------------------------------|
B |--------------------------------------------|
G |--------------------------------------------|
D |-----6-6-6-6-6-6-6-6-6-7-7-7-7-7-7-7-7------| x4 
A |--------------------------------------------|
E |--------------------------------------------|

Transition chords:
(F#) x3
(E) x3

-----------------------------------------------------------------------------------

Post chorus

Intro/Main chords x3
(B) x16
Intro/Main Chords
(B) x8
Intro/Main Chords (except change B to A9)
(B)x16
Transition chords
Intro/Main Chords x4

-----------------------------------------------------------------------------------

Bridge (around 1:04 in the song):

(A9) x3 
(D) x2 
(A)x1
Main Chords x1 

Then this little riff 

e|--------------------------------------------------------------------------|
B|--------------------------------------------------------------------------|
G|---2------------12-12--12--12-------9-9-9-9----------2--------------------|
D|---x---x8-------x--x---x---x--------x-x-x-x----7-----x--x8----------------|
A|---2------------10-10--10--10-------7-7-7-7----x-----2--------------------|
E|-----------------------------------------------5--------------------------|
 
Then

(B) x16 
(A9) x8 
(B) x8 
(D) x8 
(B) x8 
(A9) x8 
(E) x8

Main Chords x4

-----------------------------------------------------------------------------------

Ending

(B) x6 (with breaks), slide to (D) x1, then play (B) with breaks until end of song.

End.

I think it sounds right or close enough. Enjoy! :D

Tap to rate this tab
 
# A B C D E F G H I J K L M N O P Q R S T U V W X Y Z