Guitaretab - guitar tabs
Song name
# A B C D E F G H I J K L M N O P Q R S T U V W X Y Z

Shadows - Apache tab

  APACHE



   Intro:

     Am              D
e |--0---------------2-----4/5-3-0-----|
B |--1-----1-3/4/3---3---1-------------|
G |--2---2-----------2--2--------------|   X2
D |------------------------------------|
A |------------------------------------|
E |------------------------------------|


e |------------------------------------|
B |------------------------------------|
G |----2---2-------------2---2---------|
D |--2---2---4-2-0-2---2---2---4-2-0-2-|
A |------------------------------------|
E |------------------------------------|


e |------------------------------------|
B |------------------------------------|
G |----7---7-------------2---2---------|
D |--7---7---9-7-0-7---2---2---4-2-2--|
A |------------------------------------|
E |------------------------------------|


e |------------------------------------|
B |------------------------------------|
G |------------------------------------|   X2
D |---3-3-3---3-3-3---3-3-3---3-3-3-2--|
A |-3-------3-------3-------3--------0-|
E |------------------------------------|


e |------------------------------------|
B |------1-0--1-3-5-3-1----------------|
G |----2----------------2--------------|
D |--3---------------------------------|
A |------------------------------------|
E |------------------------------------|



e |--------------------3-------5-------|
B |-----1-0--1-3--3/5---5-5/7---7-7/b9|
G |---2----------0---------------------|
D |-3----------------------------------|
A |------------------------------------|
E |------------------------------------|



e |------------------------------------|
B |------1-0--1-3-5-3-1----------------|
G |----2----------------2--------------|
D |--3---------------------------------|
A |------------------------------------|
E |------------------------------------|



e |------------------------------------|
B |------------------------------------|
G |------------------------------------|   X2
D |---3-3-3---3-3-3---3-3-3---3-3-3-2--|
A |-3-------3-------3-------3--------0-|
E |------------------------------------|


[ Tab from: http://www.guitaretab.com/s/shadows/24828.html ]
e |-----------------------------------------------------|
B |-----------------------------------------------------|
G |--2-2-2-2---2-2----------------2---------------------|  X2
D |-2-------2-2---4-4-4-4-2-2-0-02---------------------|
A |-----------------------------------------------------|
E |-----------------------------------------------------|



e |-----------------------------------------------------|
B |-----------------------------------------------------|
G |--7-7-7-7---7-7----------------7---------------------|
D |-7-------7-7---9-9-9-9-7-7-0-07---------------------|
A |-----------------------------------------------------|
E |-----------------------------------------------------|


e |-----------------------------------------------------|
B |-----------------------------------------------------|
G |--2-2-2-2---2-2--------------------------------------|  
D |-2-------2-2---4-4-4-4-2-2-0-0-2-2-2-2-2-2-2-2-2-2---|
A |-----------------------------------------------------|
E |-----------------------------------------------------|



e |------------------------------------|
B |------1-0--1-3-5-3-1----------------|
G |----2----------------2--------------|
D |--3---------------------------------|
A |------------------------------------|
E |------------------------------------|



e |----------------------------------------|
B |----1-0--1-3-5--------------------------|
G |---2-----------1-1-1-1-1-1-2-1/3-1------|  
D |--3-------------------------------------|
A |----------------------------------------|
E |----------------------------------------|


e |------------------------------------|
B |------1-0--1-3-5-3-1----------------|
G |----2----------------2--------------|
D |--3---------------------------------|
A |------------------------------------|
E |------------------------------------|


e |------------------------------------|
B |------------------------------------|
G |------------------------------------|   X2
D |---3-3-3---3-3-3---3-3-3---3-3-3-2--|
A |-3-------3-------3-------3--------0-|
E |------------------------------------|


e |------------------------------------|
B |------------------------------------|
G |------------------------------------|   
D |------------------------------------|
A |------------------------------------|
E |-1-1-1-4-4-4-6-6-6-8-8-8-7----------|




     Am              D
e |--0---------------2-----4/5-3-0-----|
B |--1-----1-3/4/3---3---1-------------|
G |--2---2-----------2--2--------------|   X4
D |------------------------------------|
A |------------------------------------|
E |------------------------------------|

   
Related for Apache tab