Song name
# A B C D E F G H I J K L M N O P Q R S T U V W X Y Z

Shadows - Shadoogie tab

Shadoogie

Intro
   B7
e|----------------|----------------------|------------|----------------|
B|----------------|----------------------|------------|----------------|
G|----------------|----------------------|--2-2-2-2---|--2--2-2-2-2----|
D|----------------|----------------------|--4-4-4-4---|--4--4-4-4-4----|
A|-----2-2-2-2----|---2--2-2-2-2--2------|--2-2-2-2---|--2--2-2-2-2----|
E|----------------|----------------------|------------|----------------|
 
    E
e|--------------------------|---------------------------|
B|--------------------------|---------------------------|
G|--------------------------|---------------------------|
D|--------------------------|--0-2-0--------------------|
A|----------------2-2--4-4--|--------2-------2-------2--|
E|------0-0--4-4------------|-----------3h4-----3h4-----| x2

   A
e|--------------------------|---------------------------|
B|--------------------------|---------------------------|
G|--------------------------|--0-2-0--------------------|
D|----------------2-2--4-4--|--------2-------2-------3--|
A|------0-0--4-4------------|-----------3h4-----3h4-----|
E|--------------------------|---------------------------|

    E
e|--------------------------|---------------------------|
B|--------------------------|---------------------------|
G|--------------------------|---------------------------|
D|--------------------------|--0-2-0--------------------|
A|----------------2-2--4-4--|--------2-------2-------2--|
E|------0-0--4-4------------|-----------3h4-----3h4-----|

    B7                        A
e|--------------------------|---------------------------|
B|--------------------------|---------------------------|
G|--------------------------|--------2--0---------------|
D|----------4--2--2---------|--------------2------------|
A|-----2-2----------4-------|--0-0------------3h4-------|
E|--------------------------|---------------------------|

    E
e|--------------------------|---------------------------|
B|--------------------------|---------------------------|
G|--------------------------|---------------------------|
D|--------------------------|--0-2-0--------------------|
A|----------------2-2--4-4--|--------2-------2-------2--|
E|------0-0--4-4------------|-----------3h4-----3h4-----|

    E
e|-----------------------------|-----------------------------|
B|-----------------------------|-----------------------------|
G|-----------------------------|-----------------------------|
D|-----------------------------|-----------------------------|
A|------------2------------2---|------------2------------2---|
E|--0-0--3h4-----0-0--3h4------|--0-0--3h4-----0-0--3h4------| x2

    A
e|-----------------------------|-----------------------------|
B|-----------------------------|-----------------------------|
G|-----------------------------|-----------------------------|
D|------------2------------2---|------------2------------2---|
A|--0-0--3h4-----0-0--3h4------|--0-0--3h4-----0-0--3h4------|
E|-----------------------------|-----------------------------|

    E
e|-----------------------------|-----------------------------|
B|-----------------------------|-----------------------------|
G|-----------------------------|-----------------------------|
D|-----------------------------|-----------------------------|
A|------------2------------2---|------------2------------2---|
E|--0-0--3h4-----0-0--3h4------|--0-0--3h4-----0-0--3h4------|

    B7                            A
e|-----------------------------|-----------------------------|
B|-----------------------------|-----------------------------|
G|-----------------------------|-----------------------------|
D|-------2h3-4-------2h3--4----|------------2------------2---|
A|--2-2---------2-2------------|--0-0--3h4-----0-0--3h4------|
E|-----------------------------|-----------------------------|
                         

Tap to rate this tab
 
# A B C D E F G H I J K L M N O P Q R S T U V W X Y Z