Song name
# A B C D E F G H I J K L M N O P Q R S T U V W X Y Z

Sham 69 - Rip Off tab

Sham 69 - Rip Off

Verse
e:----------------|----------------|
b:----------------|----------------|
g:--------9-9-9-9-|7-7-7-----------| repeat
d:7-7-7-7-9-9-9-9-|7-7-7-7---7-7-7-|
a:7-7-7-7-7-7-7-7-|5-5-5-7---7-7-7-|
e:5-5-5-5---------|------5---5-5-5-|

Chorus
e:----------------|----------------|----------------|----------------|
b:----------------|----------------|----------------|----------------|
g:------------9-9-|----------------|----------------|----------------|
d:------------9-9-|------------7-7-|------------9-9-|------------7-7-|
a:------------7-7-|------------7-7-|------------9-9-|------------7-7-|
e:----------------|------------5-5-|------------7-7-|------------5-5-|

e:----------------|----------------|----------------|----------------|
b:----------------|----------------|----------------|----------------|
g:------------9-9-|----------------|----------------|----------------|
d:------------9-9-|------------7-7-|------------9-9-|------------7-7-|
a:------------7-7-|------------7-7-|------------9-9-|------------7-7-|
e:----------------|------------5-5-|------------7-7-|------------5-5-|

e:----------------|
b:----------------|
g:----------------|
d:7-7-7-9---------|
a:7-7-7-9---------|
e:5-5-5-7---------|

Verse
e:----------------|----------------|
b:----------------|----------------|
g:--------9-9-9-9-|7-7-7-----------|
d:7-7-7-7-9-9-9-9-|7-7-7-7---7-7-7-|
a:7-7-7-7-7-7-7-7-|5-5-5-7---7-7-7-|repeat
e:5-5-5-5---------|------5---5-5-5-|

Chorus
e:----------------|----------------|----------------|----------------|
b:----------------|----------------|----------------|----------------|
g:------------9-9-|----------------|----------------|----------------|
d:------------9-9-|------------7-7-|------------9-9-|------------7-7-|
a:------------7-7-|------------7-7-|------------9-9-|------------7-7-|
e:----------------|------------5-5-|------------7-7-|------------5-5-|

e:----------------|----------------|----------------|----------------|
b:----------------|----------------|----------------|----------------|
g:------------9-9-|----------------|----------------|----------------|
d:------------9-9-|------------7-7-|------------9-9-|------------7-7-|
a:------------7-7-|------------7-7-|------------9-9-|------------7-7-|
e:----------------|------------5-5-|------------7-7-|------------5-5-|

e:----------------|
b:----------------|
g:----------------|
d:7-7-7-9---------|
a:7-7-7-9---------|
e:5-5-5-7---------|

End
e:--------------------|----------------|--------------------|----------------|
b:--------------------|----------------|--------------------|----------------|
g:--------11-11-11-11-|9-9-9-----------|--------10-10-10-10-|8-8-8-----------|
d:9-9-9-9-11-11-11-11-|9-9-9-9---9-9-9-|8-8-8-8-10-10-10-10-|8-8-8-8---8-8-8-|
a:9-9-9-9-09-09-09-09-|7-7-7-9---9-9-9-|8-8-8-8-08-08-08-08-|6-6-6-8---8-8-8-|
e:7-7-7-7-------------|------7---7-7-7-|6-6-6-6-------------|------6---6-6-6-|

e:----------------|----------------|----------------|----------------|
b:----------------|----------------|----------------|----------------|
g:--------9-9-9-9-|7-7-7-----------|--------8-8-8-8-|6-6-6-----------|
d:7-7-7-7-9-9-9-9-|7-7-7-7---7-7-7-|6-6-6-6-8-8-8-8-|6-6-6-7---------|
a:7-7-7-7-7-7-7-7-|5-5-5-7---7-7-7-|6-6-6-6-6-6-6-6-|4-4-4-7---------|
e:5-5-5-5---------|------5---5-5-5-|4-4-4-4---------|------5---------|
Tap to rate this tab
# A B C D E F G H I J K L M N O P Q R S T U V W X Y Z