Song name
# A B C D E F G H I J K L M N O P Q R S T U V W X Y Z

Sham Rain - Raindrops tab

Intro:
E----------------------------------|
B----------------------------------|
G---------4-------------4----------|
D-------2---2---------2---2--------|
A----------------------------------|
E----------------------------------|

E----------------------------------|
B---8---8-7---7/5---5/3-----3-5----|
G----------------------------------|
D----------------------------------|
A----------------------------------|
E----------------------------------|


Main riff:
E-------------7---7-5---2-2-2-2-3-----|
B---5-5-5-5/7---------------------3---|
G-------------------------------------|
D-------------------------------------|
A-------------------------------------|
E-------------------------------------|

E-------------------7---7-5---5-5-5-5-5/3-3---|
B---3/5---5-5-5-5-7---------------------------|
G---------------------------------------------|
D---------------------------------------------|
A---------------------------------------------|
E---------------------------------------------|

E---7-7-7-----------|
B---------7-7-7-5---|
G-------------------|
D-------------------|
A-------------------|
E-------------------|


Chorus:
With an acoustic guitar, you could play these chords:
Em G C Bm


Solo:
E-----------------------------------|
B---8-8-8-8-8-7-7-7-7-5-5-5---------|
G---------------------------7-7-7---|
D-----------------------------------|
A-----------------------------------|
E-----------------------------------|

E--------------------|
B---8-8-8-8-8-10/7---|
G--------------------|
D--------------------|
A--------------------|
E--------------------|

E--------8-8-8-8-8-7-7-7-7-5-5-5-5---------|
B---8-10---------------------------8-8-8---|
G------------------------------------------|
D------------------------------------------|
A------------------------------------------|
E------------------------------------------|

E---7-7-7-7-7-8/5-------|
B-----------------8-7---|
G-----------------------|
D-----------------------|
A-----------------------|
E-----------------------|
Tap to rate this tab
# A B C D E F G H I J K L M N O P Q R S T U V W X Y Z