Song name
# A B C D E F G H I J K L M N O P Q R S T U V W X Y Z

Sham Rain - Nothing tab

ShamRain - Nothing
Tuning: Standard


Since this song is joined together with Siren Song, this tab starts at 4:10.


Before verse:
e|----------------------------------------------------------------------|
B|----------------------------------------------------------------------|
G|----------------------------------------------------------------------|
D|---9----------------9h10-9-----10---------7-----10-10-10-10-12----9---|
A|-------10-9--10-----------------------10-----------------------9------|
E|----------------------------------------------------------------------|

e|---------------------------------------------------------|
B|---------------------------------------------------------|
G|--------9---9-11-11h12-----------------------------------|
D|---9-10----------------9-----9--7------------------------|
A|-----------------------------------10-----10-9--9-10-7---|
E|---------------------------------------------------------|


Between verses (starts after "If you could once say that I mean something..."):
e|----------------------------------------------------------------------|
B|----------------------------------------------------------------------|
G|----------------------------------------------------------------------|
D|---9----------------9h10-9---9-10---------7-----10-10-10-10-12----9---|
A|-------10-9--10-----------------------10-----------------------9------|
E|----------------------------------------------------------------------|

e|----------------------------------------------------------|
B|----------------------------------------------------------|
G|--------9---9-11-11h12------------------------------------|
D|---9-10----------------9-----9--7-------------------------|
A|-----------------------------------10-----10-12h14--9-7---|
E|----------------------------------------------------------|


Chords that match with the song (when playing acoustic): Em Am


Some background notes
(order is not this, listen to the song for them):
e|--------------------|
B|--------------------|
G|--------------------|
D|--------------------|
A|-------10-------9---|
E|---8-7--------7-----|
Tap to rate this tab
# A B C D E F G H I J K L M N O P Q R S T U V W X Y Z