Song name
# A B C D E F G H I J K L M N O P Q R S T U V W X Y Z

Sham Rain - Aura tab

As you know, most of this song is played with keyboards. Here are the guitar parts.


Intro:
E-----------------0-----------------------------------------|
B---3-6-3-5-----1---1-3-------------------------------------|
G-----------------------------------------------------------|
D-----------------------------------------------------------|
A-----------------------------------------------------------|
E-----------------------------------------------------------|

E---------------------------------|
B---------------------------------|
G---10-7-7-7-7/10/7----10-7-7-5---|
D---------------------------------|
A---------------------------------|
E---------------------------------|

E---------------------------------|
B---------------------------------|
G---10-7-7-7-7/10/7----9-10-9-7---|
D---------------------------------|
A---------------------------------|
E---------------------------------|


Chorus:
F Am
There are more to the chorus, but I haven't figured out all the chords yet.


Bridge:
E-------------------------------|
B---6-5-5-------5-6-8-6-6-5-5---|
G---------7-7-7-----------------|
D-------------------------------|
A-------------------------------|
E-------------------------------|

E----5-------------------------|
B------8-8-6-6-6/5-6-5-6-5-----|
G--------------------------7---|
D------------------------------|
A------------------------------|
E------------------------------|

E-------------------------------|
B---6-5-5-------5-6-8-6-6-5-5---|
G---------7-7-7-----------------|
D-------------------------------|
A-------------------------------|
E-------------------------------|

E-----------------5------5-5---|
B---8-6-6-5-6-6/8----8-8-------|
G------------------------------|
D------------------------------|
A------------------------------|
E------------------------------|
Tap to rate this tab
 
# A B C D E F G H I J K L M N O P Q R S T U V W X Y Z