Song name
# A B C D E F G H I J K L M N O P Q R S T U V W X Y Z

Shinedown - Bully tab

----------------------------------------------------------------------------
				Bully
			       Shinedown
----------------------------------------------------------------------------

What a great single by Shinedown. It is something we can all relate to whether you are
being picked on, or whether you are picking on others. I took courage to do what they
did, and they couldn’t have done it better. If you are a beginner, please try to skip 
the solo because it will not be easy. Enjoy!

Username: dkm817 (same on X box live)
Youtube Cover: http://www.youtube.com/watch?v=pdkg5hG8J04
Email: guitardrums@rockfan.com

Guitar 1 Rhythmic (C# G# C# F# A# D#)
Guitar 2 Lead     (C# G# C# F# A# D#)

Tab Guide...
===================================================================
(end of measures)

===================================================================
===================================================================
(end of parts)

===================================================================
===================================================================
===================================================================
(end of song)
(If there is a “continued” it is because the numbers could not
fit on 1 line.)


Intro 1

Guitar 1
D#-----------------------------------------------------------------|
A#-----------------------------------------------------------------|
F#-----------------------------------------------------------------|
C#-x---x---x---x---x---x---x---x---x---x---x---x---x-x-x-x-x-x-x-x-|
G#-x---x---x---x---x---x---x---x---x---x---x---x---x-x-x-x-x-x-x-x-|
C#-x---x---x---x---x---x---x---x---x---x---x---x---x-x-x-x-x-x-x-x-|

===================================================================
===================================================================


Intro 2

(x4)

Guitar 1
D#-----------------------------------------------------------------|
A#-----------------------------------------------------------------|
F#-----------------------------------------------------------------|
C#-----------------------------------------------------------------|
G#-----------------------------------------------------------------|
C#-0~~~~~~-3---0---5~b~r~~-3---0~~~~~~~~~~-3---0---5~b~~-----------|

Guitar 2
D#-----------------------------------------------------------------|
A#---------18------20b~r~~-18--------------18------20b~~-----------|
F#-19~~~~~-----19--------------19~~~~~~~~~-----19------------------|
C#-----------------------------------------------------------------|
G#-----------------------------------------------------------------|
C#-----------------------------------------------------------------|

===================================================================
===================================================================


Verse 1

Guitar 1 & 2
D#-----------------------------------------------------------------|
A#-----------------------------------------------------------------|
F#-7~~~~~~~~~~~~~~~~~~~~~~~~~~-x-x-7~~~~~~~~~~~~~~~~~~~~~~~~~~-x-x-|
C#-7~~~~~~~~~~~~~~~~~~~~~~~~~~-x-x-7~~~~~~~~~~~~~~~~~~~~~~~~~~-x-x-|
G#-5~~~~~~~~~~~~~~~~~~~~~~~~~~-x-x-5~~~~~~~~~~~~~~~~~~~~~~~~~~-x-x-|
C#-----------------------------------------------------------------|

===================================================================
Guitar 1 & 2
D#-----------------------------------------------------------------|
A#-----------------------------------------------------------------|
F#-10~~~~~~~~~~~~~~~~~~~~~~~~~-x-x-5~~~~~~~~~~~~~~~~~~~~~~~~~~-x-x-|
C#-10~~~~~~~~~~~~~~~~~~~~~~~~~-x-x-5~~~~~~~~~~~~~~~~~~~~~~~~~~-x-x-|
G#-8~~~~~~~~~~~~~~~~~~~~~~~~~~-x-x-3~~~~~~~~~~~~~~~~~~~~~~~~~~-x-x-|
C#-----------------------------------------------------------------|

===================================================================

Guitar 1 & 2
D#-----------------------------------------------------------------|
A#-----------------------------------------------------------------|
F#-7~~~~~~~~~~~~~~~~~~~~~~~~~~-x-x-7~~~~~~~~~~~~~~~~~~~~~~~~~~-x-x-|
C#-7~~~~~~~~~~~~~~~~~~~~~~~~~~-x-x-7~~~~~~~~~~~~~~~~~~~~~~~~~~-x-x-|
G#-5~~~~~~~~~~~~~~~~~~~~~~~~~~-x-x-5~~~~~~~~~~~~~~~~~~~~~~~~~~-x-x-|
C#-----------------------------------------------------------------|

===================================================================

Guitar 1 & 2
D#-----------------------------------------------------------------|
A#-----------------------------------------------------------------|
F#-10~~~~~~~~~~~~~~~~~~~~~~~~~-x-x-5~~~~~~~~~~~~~~~~~~~~~~~~~~~~~~-|
C#-10~~~~~~~~~~~~~~~~~~~~~~~~~-x-x-5~~~~~~~~~~~~~~~~~~~~~~~~~~~~~~-|
G#-8~~~~~~~~~~~~~~~~~~~~~~~~~~-x-x-3~~~~~~~~~~~~~~~~~~~~~~~~~~~~~~-|
C#-----------------------------------------------------------------|

===================================================================
===================================================================


Pre Chorus 1

Guitar 1 & 2
D#-----------------------------------------------------------------|
A#-----------------------------------------------------------------|
F#-7---7-------------------7---7-----------------------------------|
C#-7---7-------------------7---7-----------------------------------|
G#-5---5-------------------5---5-----------------------------------|
C#-----------------------------------------------------------------|
pm .   .                   .   .

===================================================================

Guitar 1
D#-----------------------------------------------------------------|
A#-----------------------------------------------------------------|
F#-7---7-------------------7---7-----------------------------------|
C#-7---7-------------------7---7---x---x---x---x---x-x-x-x-x-x-x-x-|
G#-5---5-------------------5---5---x---x---x---x---x-x-x-x-x-x-x-x-|
C#---------------------------------x---x---x---x---x-x-x-x-x-x-x-x-|
pm .   .                   .   .

Guitar 2
D#-----------------------------------------------------------------|
A#-----------------------------------------------------------------|
F#-7---7-------------------7---7-----------------------------------|
C#-7---7-------------------7---7-----------------------------------|
G#-5---5-------------------5---5-----------------------------------|
C#-----------------------------------------------------------------|
pm .   .                   .   .

===================================================================
===================================================================


Chorus 1

Guitar 1
D#-----------------------------------------------------------------|
A#-----------------------------------------------------------------|
F#-----------------------------------------------------------------|
C#-0---0---0---0---0---0---0---0---0---0---0---0---0---0---0---0---|
G#-0---0---0---0---0---0---0---0---0---0---0---0---0---0---0---0---|
C#-0---0---0---0---0---0---0---0---0---0---0---0---0---0---0---0---|

Guitar 2
D#-----------------------------------------------------------------|
A#-----------------------------------------------------------------|
F#-7---7---7---7---7---7---7---7---7---7---7---7---7---7---7---7---|
C#-x---x---x---x---x---x---x---x---x---x---x---x---x---x---x---x---|
G#-5---5---5---5---5---5---5---5---5---5---5---5---5---5---5---5---|
C#-----------------------------------------------------------------|

===================================================================

Guitar 1
D#-----------------------------------------------------------------|
A#-----------------------------------------------------------------|
F#-----------------------------------------------------------------|
C#-3---3---3---3---3---3---3---3---3---3---3---3---3---3---3---3---|
G#-3---3---3---3---3---3---3---3---3---3---3---3---3---3---3---3---|
C#-3---3---3---3---3---3---3---3---3---3---3---3---3---3---3---3---|

Guitar 2
D#-----------------------------------------------------------------|
A#-----------------------------------------------------------------|
F#-10--10--10--10--10--10--10--10--10--10--10--10--10--10--10--10--|
C#-x---x---x---x---x---x---x---x---x---x---x---x---x---x---x---x---|
G#-8---8---8---8---8---8---8---8---8---8---8---8---8---8---8---8---|
C#-----------------------------------------------------------------|

===================================================================

Guitar 1
D#-----------------------------------------------------------------|
A#-----------------------------------------------------------------|
F#-----------------------------------------------------------------|
C#-5---5---5---5---5---5---5---5---5---5---5---5---5---5---5---5---|
G#-5---5---5---5---5---5---5---5---5---5---5---5---5---5---5---5---|
C#-5---5---5---5---5---5---5---5---5---5---5---5---5---5---5---5---|

Guitar 2
D#-----------------------------------------------------------------|
A#-----------------------------------------------------------------|
F#-12--12--12--12--12--12--12--12--12--12--12--12--12--12--12--12--|
C#-x---x---x---x---x---x---x---x---x---x---x---x---x---x---x---x---|
G#-10--10--10--10--10--10--10--10--10--10--10--10--10--10--10--10--|
C#-----------------------------------------------------------------|

===================================================================

Guitar 1
D#-----------------------------------------------------------------|
A#-----------------------------------------------------------------|
F#-----------------------------------------------------------------|
C#-8---8---8---8---8---8---8---8---8---8---8---8---8---8---8---8---|
G#-8---8---8---8---8---8---8---8---8---8---8---8---8---8---8---8---|
C#-8---8---8---8---8---8---8---8---8---8---8---8---8---8---8---8---|

Guitar 2
D#-----------------------------------------------------------------|
A#---------------------------------10--10--11--11--13--13--15--15--|
F#-7---7---9---9---10--10--12--12--x---x---x---x---x---x---x---x---|
C#-x---x---x---x---x---x---x---x---7---7---8---8---10--10--12--12--|
G#-5---5---7---7---8---8---10--10----------------------------------|
C#-----------------------------------------------------------------|

===================================================================

Guitar 1
D#-----------------------------------------------------------------|
A#-----------------------------------------------------------------|
F#-----------------------------------------------------------------|
C#-0---0---0---0---0---0---0---0---0---0---0---0---0---0---0---0---|
G#-0---0---0---0---0---0---0---0---0---0---0---0---0---0---0---0---|
C#-0---0---0---0---0---0---0---0---0---0---0---0---0---0---0---0---|

Guitar 2
D#-----------------------------------------------------------------|
A#-15--15--15--15--15--15--15--15--15--15--15--15--15--15--15--15--|
F#-x---x---x---x---x---x---x---x---x---x---x---x---x---x---x---x---|
C#-12--12--12--12--12--12--12--12--12--12--12--12--12--12--12--12--|
G#-----------------------------------------------------------------|
C#-----------------------------------------------------------------|

===================================================================

Guitar 1
D#-----------------------------------------------------------------|
A#-----------------------------------------------------------------|
F#-----------------------------------------------------------------|
C#-3---3---3---3---3---3---3---3---3---3---3---3---3---3---3---3---|
G#-3---3---3---3---3---3---3---3---3---3---3---3---3---3---3---3---|
C#-3---3---3---3---3---3---3---3---3---3---3---3---3---3---3---3---|

Guitar 2
D#-----------------------------------------------------------------|
A#-13--13--13--13--13--13--13--13--13--13--13--13--13--13--13--13--|
F#-x---x---x---x---x---x---x---x---x---x---x---x---x---x---x---x---|
C#-10--10--10--10--10--10--10--10--10--10--10--10--10--10--10--10--|
G#-----------------------------------------------------------------|
C#-----------------------------------------------------------------|

===================================================================

Guitar 1
D#-----------------------------------------------------------------|
A#-----------------------------------------------------------------|
F#-----------------------------------------------------------------|
C#-5---5---5---5---5---5---5---5---5---5---5---5---5---5---5---5---|
G#-5---5---5---5---5---5---5---5---5---5---5---5---5---5---5---5---|
C#-5---5---5---5---5---5---5---5---5---5---5---5---5---5---5---5---|

Guitar 2
D#-----------------------------------------------------------------|
A#-15--15--15--15--15--15--15--15--15--15--15--15--15--15--15--15--|
F#-x---x---x---x---x---x---x---x---x---x---x---x---x---x---x---x---|
C#-12--12--12--12--12--12--12--12--12--12--12--12--12--12--12--12--|
G#-----------------------------------------------------------------|
C#-----------------------------------------------------------------|

===================================================================

Guitar 1
D#-----------------------------------------------------------------|
A#-----------------------------------------------------------------|
F#-----------------------------------------------------------------|
C#-8---8---8---8---8---8---8---8---8---10--10--10--10--10--10--10--|
G#-8---8---8---8---8---8---8---8---8---10--10--10--10--10--10--10--|
C#-8---8---8---8---8---8---8---8---8---10--10--10--10--10--10--10--|

Guitar 2
D#-----------------------------------------------------------------|
A#-11--11--11--11--11--11--11--11--11--13--13--13--13--13--13--13--|
F#-x---x---x---x---x---x---x---x---x---x---x---x---x---x---x---x---|
C#-8---8---8---8---8---8---8---8---8---10--10--10--10--10--10--10--|
G#-----------------------------------------------------------------|
C#-----------------------------------------------------------------|

===================================================================
===================================================================


Bridge 1

(x2)

Guitar 1
D#-----------------------------------------------------------------|
A#-----------------------------------------------------------------|
F#-----------------------------------------------------------------|
C#-----------------------------------------------------------------|
G#-----------------------------------------------------------------|
C#-0~~~~~~-3---0---5~b~r~~-3---0~~~~~~~~~~-3---0---5~b~~-----------|

Guitar 2
D#-----------------------------------------------------------------|
A#---------18------20b~r~~-18--------------18------20b~~-----------|
F#-19~~~~~-----19--------------19~~~~~~~~~-----19------------------|
C#-----------------------------------------------------------------|
G#-----------------------------------------------------------------|
C#-----------------------------------------------------------------|

===================================================================
===================================================================


Verse 1

Guitar 1
D#-----------------------------------------------------------------|
A#-----------------------------------------------------------------|
F#-7~~~~~~~~~~~~~~~~~~~~~~~~~~-x-x-7~~~~~~~~~~~~~~~~~~~~~~~~~~-x-x-|
C#-7~~~~~~~~~~~~~~~~~~~~~~~~~~-x-x-7~~~~~~~~~~~~~~~~~~~~~~~~~~-x-x-|
G#-5~~~~~~~~~~~~~~~~~~~~~~~~~~-x-x-5~~~~~~~~~~~~~~~~~~~~~~~~~~-x-x-|
C#-----------------------------------------------------------------|

Guitar 2
D#-----------------------------------------------------------------|
A#-----7---8-7---------7-7-8-7---------7---8-7---------7-7-8-7-----|
F#---7---7-----7-----7---------7-----7---7-----7-----7---------7---|
C#---------------10------------------------------10----------------|
G#-----------------------------------------------------------------|
C#-----------------------------------------------------------------|
Pm   . . . . . . .   . . . . . .     . . . . . . .   . . . . . .

===================================================================

Guitar 1
D#-----------------------------------------------------------------|
A#-----------------------------------------------------------------|
F#-10~~~~~~~~~~~~~~~~~~~~~~~~~-x-x-5~~~~~~~~~~~~~~~~~~~~~~~~~~-x-x-|
C#-10~~~~~~~~~~~~~~~~~~~~~~~~~-x-x-5~~~~~~~~~~~~~~~~~~~~~~~~~~-x-x-|
G#-8~~~~~~~~~~~~~~~~~~~~~~~~~~-x-x-3~~~~~~~~~~~~~~~~~~~~~~~~~~-x-x-|
C#-----------------------------------------------------------------|

Guitar 2
D#-----------------------------------------------------------------|
A#-----6---6---6-------6---6---6-------3---3---3-------3---3---3---|
F#---7---7---7---7---7---7---7---7---5---5---5---5---5---5---5---5-|
C#-----------------------------------------------------------------|
G#-----------------------------------------------------------------|
C#-----------------------------------------------------------------|
Pm   . . . . . . .   . . . . . . .   . . . . . . .   . . . . . . .

===================================================================

Guitar 1
D#-----------------------------------------------------------------|
A#-----------------------------------------------------------------|
F#-7~~~~~~~~~~~~~~~~~~~~~~~~~~-x-x-7~~~~~~~~~~~~~~~~~~~~~~~~~~-x-x-|
C#-7~~~~~~~~~~~~~~~~~~~~~~~~~~-x-x-7~~~~~~~~~~~~~~~~~~~~~~~~~~-x-x-|
G#-5~~~~~~~~~~~~~~~~~~~~~~~~~~-x-x-5~~~~~~~~~~~~~~~~~~~~~~~~~~-x-x-|
C#-----------------------------------------------------------------|

Guitar 2
D#-----------------------------------------------------------------|
A#-----7---8-7---------7-7-8-7---------7---8-7---------7-7-8-7-----|
F#---7---7-----7-----7---------7-----7---7-----7-----7---------7---|
C#---------------10------------------------------10----------------|
G#-----------------------------------------------------------------|
C#-----------------------------------------------------------------|
Pm   . . . . . . .   . . . . . .     . . . . . . .   . . . . . .

===================================================================

Guitar 1
D#-----------------------------------------------------------------|
A#-----------------------------------------------------------------|
F#-10~~~~~~~~~~~~~~~~~~~~~~~~~-x-x-5~~~~~~~~~~~~~~~~~~~~~~~~~~~~~~-|
C#-10~~~~~~~~~~~~~~~~~~~~~~~~~-x-x-5~~~~~~~~~~~~~~~~~~~~~~~~~~~~~~-|
G#-8~~~~~~~~~~~~~~~~~~~~~~~~~~-x-x-3~~~~~~~~~~~~~~~~~~~~~~~~~~~~~~-|
C#-----------------------------------------------------------------|


Guitar 2
D#-----------------------------------------------------------------|
A#-----6---6---6-------6---6---6-------3---3---3-------3---3---3---|
F#---7---7---7---7---7---7---7---7---5---5---5---5---5---5---5---5-|
C#-----------------------------------------------------------------|
G#-----------------------------------------------------------------|
C#-----------------------------------------------------------------|
Pm   . . . . . . .   . . . . . . .   . . . . . . .   . . . . . . .

===================================================================
===================================================================


Pre Chorus 1

Guitar 1
D#-----------------------------------------------------------------|
A#-----------------------------------------------------------------|
F#-7---7-------------------7---7-----------------------------------|
C#-7---7-------------------7---7-----------------------------------|
G#-5---5-------------------5---5-----------------------------------|
C#-----------------------------------------------------------------|
pm .   .                   .   .

Guitar 2
D#-----------------------------------------------------------------|
A#-----------------------------------------------------------------|
F#-7~~~~~~~~~~~~~~~~~~~~~~~~~~~~~~~~~~~~~~~~~~~~~~~~~~~~~~~~~~~~~~-
C#-x---------------------------------------------------------------
G#-5~~~~~~~~~~~~~~~~~~~~~~~~~~~~~~~~~~~~~~~~~~~~~~~~~~~~~~~~~~~~~~-
C#-----------------------------------------------------------------

===================================================================

Guitar 1
D#-----------------------------------------------------------------|
A#-----------------------------------------------------------------|
F#-7---7-------------------7---7-----------------------------------|
C#-7---7-------------------7---7-----------------------------------|
G#-5---5-------------------5---5-----------------------------------|
C#-----------------------------------------------------------------|
pm .   .                   .   .

Guitar 2
D#-----------------------------------------------------------------|
A#-----------------------------------------------------------------|
F#-~~~~~~~~~~~~~~~~~~~~~~~~~~~~~~~~~~~~~~~~~~~~~~~~~~~~~~~~~~~~~~~-
C#-~~~~~~~~~~~~~~~~~~~~~~~~~~~~~~~~~~~~~~~~~~~~~~~~~~~~~~~~~~~~~~~-
G#-~~~~~~~~~~~~~~~~~~~~~~~~~~~~~~~~~~~~~~~~~~~~~~~~~~~~~~~~~~~~~~~-
C#-----------------------------------------------------------------

Guitar 1
D#-----------------------------------------------------------------|
A#-----------------------------------------------------------------|
F#-----------------------------------------------------------------|
C#-x---x---x---x---x---x---x---x---x---x---x---x---x-x-x-x-x-x-x-x-|
G#-x---x---x---x---x---x---x---x---x---x---x---x---x-x-x-x-x-x-x-x-|
C#-x---x---x---x---x---x---x---x---x---x---x---x---x-x-x-x-x-x-x-x-|

===================================================================
===================================================================


Chorus 1

Guitar 1
D#-----------------------------------------------------------------|
A#-----------------------------------------------------------------|
F#-----------------------------------------------------------------|
C#-0---0---0---0---0---0---0---0---0---0---0---0---0---0---0---0---|
G#-0---0---0---0---0---0---0---0---0---0---0---0---0---0---0---0---|
C#-0---0---0---0---0---0---0---0---0---0---0---0---0---0---0---0---|

Guitar 2
D#-----------------------------------------------------------------|
A#-----------------------------------------------------------------|
F#-7---7---7---7---7---7---7---7---7---7---7---7---7---7---7---7---|
C#-x---x---x---x---x---x---x---x---x---x---x---x---x---x---x---x---|
G#-5---5---5---5---5---5---5---5---5---5---5---5---5---5---5---5---|
C#-----------------------------------------------------------------|

===================================================================

Guitar 1
D#-----------------------------------------------------------------|
A#-----------------------------------------------------------------|
F#-----------------------------------------------------------------|
C#-3---3---3---3---3---3---3---3---3---3---3---3---3---3---3---3---|
G#-3---3---3---3---3---3---3---3---3---3---3---3---3---3---3---3---|
C#-3---3---3---3---3---3---3---3---3---3---3---3---3---3---3---3---|

Guitar 2
D#-----------------------------------------------------------------|
A#-----------------------------------------------------------------|
F#-10--10--10--10--10--10--10--10--10--10--10--10--10--10--10--10--|
C#-x---x---x---x---x---x---x---x---x---x---x---x---x---x---x---x---|
G#-8---8---8---8---8---8---8---8---8---8---8---8---8---8---8---8---|
C#-----------------------------------------------------------------|

===================================================================

Guitar 1
D#-----------------------------------------------------------------|
A#-----------------------------------------------------------------|
F#-----------------------------------------------------------------|
C#-5---5---5---5---5---5---5---5---5---5---5---5---5---5---5---5---|
G#-5---5---5---5---5---5---5---5---5---5---5---5---5---5---5---5---|
C#-5---5---5---5---5---5---5---5---5---5---5---5---5---5---5---5---|

Guitar 2
D#-----------------------------------------------------------------|
A#-----------------------------------------------------------------|
F#-12--12--12--12--12--12--12--12--12--12--12--12--12--12--12--12--|
C#-x---x---x---x---x---x---x---x---x---x---x---x---x---x---x---x---|
G#-10--10--10--10--10--10--10--10--10--10--10--10--10--10--10--10--|
C#-----------------------------------------------------------------|

===================================================================

Guitar 1
D#-----------------------------------------------------------------|
A#-----------------------------------------------------------------|
F#-----------------------------------------------------------------|
C#-8---8---8---8---8---8---8---8---8---8---8---8---8---8---8---8---|
G#-8---8---8---8---8---8---8---8---8---8---8---8---8---8---8---8---|
C#-8---8---8---8---8---8---8---8---8---8---8---8---8---8---8---8---|

Guitar 2
D#-----------------------------------------------------------------|
A#---------------------------------10--10--11--11--13--13--15--15--|
F#-7---7---9---9---10--10--12--12--x---x---x---x---x---x---x---x---|
C#-x---x---x---x---x---x---x---x---7---7---8---8---10--10--12--12--|
G#-5---5---7---7---8---8---10--10----------------------------------|
C#-----------------------------------------------------------------|

===================================================================

Guitar 1
D#-----------------------------------------------------------------|
A#-----------------------------------------------------------------|
F#-----------------------------------------------------------------|
C#-0---0---0---0---0---0---0---0---0---0---0---0---0---0---0---0---|
G#-0---0---0---0---0---0---0---0---0---0---0---0---0---0---0---0---|
C#-0---0---0---0---0---0---0---0---0---0---0---0---0---0---0---0---|

Guitar 2
D#-----------------------------------------------------------------|
A#-15--15--15--15--15--15--15--15--15--15--15--15--15--15--15--15--|
F#-x---x---x---x---x---x---x---x---x---x---x---x---x---x---x---x---|
C#-12--12--12--12--12--12--12--12--12--12--12--12--12--12--12--12--|
G#-----------------------------------------------------------------|
C#-----------------------------------------------------------------|

===================================================================

Guitar 1
D#-----------------------------------------------------------------|
A#-----------------------------------------------------------------|
F#-----------------------------------------------------------------|
C#-3---3---3---3---3---3---3---3---3---3---3---3---3---3---3---3---|
G#-3---3---3---3---3---3---3---3---3---3---3---3---3---3---3---3---|
C#-3---3---3---3---3---3---3---3---3---3---3---3---3---3---3---3---|

Guitar 2
D#-----------------------------------------------------------------|
A#-13--13--13--13--13--13--13--13--13--13--13--13--13--13--13--13--|
F#-x---x---x---x---x---x---x---x---x---x---x---x---x---x---x---x---|
C#-10--10--10--10--10--10--10--10--10--10--10--10--10--10--10--10--|
G#-----------------------------------------------------------------|
C#-----------------------------------------------------------------|

===================================================================

Guitar 1
D#-----------------------------------------------------------------|
A#-----------------------------------------------------------------|
F#-----------------------------------------------------------------|
C#-5---5---5---5---5---5---5---5---5---5---5---5---5---5---5---5---|
G#-5---5---5---5---5---5---5---5---5---5---5---5---5---5---5---5---|
C#-5---5---5---5---5---5---5---5---5---5---5---5---5---5---5---5---|

Guitar 2
D#-----------------------------------------------------------------|
A#-15--15--15--15--15--15--15--15--15--15--15--15--15--15--15--15--|
F#-x---x---x---x---x---x---x---x---x---x---x---x---x---x---x---x---|
C#-12--12--12--12--12--12--12--12--12--12--12--12--12--12--12--12--|
G#-----------------------------------------------------------------|
C#-----------------------------------------------------------------|

===================================================================

Guitar 1
D#-----------------------------------------------------------------|
A#-----------------------------------------------------------------|
F#-----------------------------------------------------------------|
C#-8---8---8---8---8---8---8---8---8---10--10--10--10--10--10--10--|
G#-8---8---8---8---8---8---8---8---8---10--10--10--10--10--10--10--|
C#-8---8---8---8---8---8---8---8---8---10--10--10--10--10--10--10--|

Guitar 2
D#-----------------------------------------------------------------|
A#-11--11--11--11--11--11--11--11--11--13--13--13------------------|
F#-x---x---x---x---x---x---x---x---x---x---x---x-------------------|
C#-8---8---8---8---8---8---8---8---8---10--10--10--12~~~~~~~~~~~~~-|
G#-------------------------------------------------12\~~~~~~~~~~~~-|
C#-------------------------------------------------12\~~~~~~~~~~~~-|

===================================================================
===================================================================


Guitar Solo

Guitar 1
D#-----------------------------------------------------------------|
A#-----------------------------------------------------------------|
F#-------------------------------------------------7---7---7---7---|
C#-------------------------------------------------7---7---7---7---|
G#-------------------------------------------------5---5---5---5---|
C#-8---7---7---8---7---7---8---7---7---8---7---7-------------------|
Pm                                                 .   .   .   .

Guitar 2
D#-----------------------------------------------------------------|
A#-----------------------------------------------------------------|
F#-------------------------------------------------7---10--12--10--|
C#-8---7---7---8---7---7---8---7---7---8---7---7-------------------|
G#-----------------------------------------------------------------|
C#-----------------------------------------------------------------|

===================================================================

Guitar 1
D#-----------------------------------------------------------------|
A#-----------------------------------------------------------------|
F#-----------------------------------------------------------------|
C#-----------------------------------------------------------------|
G#-------------------------------------------------7---8---7-------|
C#-8---7---7---8---7---7---8---7---7---8---7---7---------------10--|

Guitar 2
D#----------------------------------------------------13----------|
A#----------------------------------13----------13-15----15-13-15-|
F#----------------12----------12-14----14-12-14-------------------|
C#----------12-15----15-12-15-------------------------------------|
G#-15-12-15-------------------------------------------------------|
C#----------------------------------------------------------------|

Guitar 2 continued
D#-13-15-16p15p13-15-13-------------|
A#----------------------15-13-15-13-|
F#----------------------------------|
C#----------------------------------|
G#----------------------------------|
C#----------------------------------|

===================================================================

Guitar 1
D#-----------------------------------------------------------------|
A#-----------------------------------------------------------------|
F#-------------------------------------------------7---7---7---7---|
C#-------------------------------------------------7---7---7---7---|
G#-------------------------------------------------5---5---5---5---|
C#-8---7---7---8---7---7---8---7---7---8---7---7-------------------|
Pm                                                 .   .   .   .

Guitar 2
D#-----15--13------------------------------------------------------|
A#-------------15--15~~~~~-15------13----------10~~~~~~~~~-13------|
F#-----------------17b~~~~-----14------12--12b~~~~-12--12b-----12--|
C#-----------------------------------------------------------------|
G#-----------------------------------------------------------------|
C#-----------------------------------------------------------------|

===================================================================

Guitar 1
D#-----------------------------------------------------------------|
A#-----------------------------------------------------------------|
F#-7---7---7---9---9---9---10--10--10--12--12--12--14--14--15\~~~~-|
C#-7---7---7---9---9---9---10--10--10--12--12--12--14--14--15\~~~~-|
G#-5---5---5---7---7---7---8---8---8---10--10--10--12--12--13\~~~~-|
C#-----------------------------------------------------------------|

Guitar 2
D#-10b~~~~~~~r-12b~~~~~~~r-13b~~~~~~~r-15b~~~~~~~r-15b~~~~~~~~~~~~-|
A#-14b~~~~~~~r-16b~~~~~~~r-17b~~~~~~~r-19b~~~~~~~r-19b~~~~~~~~~~~~-|
F#-----------------------------------------------------------------|
C#-----------------------------------------------------------------|
G#-----------------------------------------------------------------|
C#-----------------------------------------------------------------|

===================================================================

Guitar 1
D#-----------------------------------------------------------------|
A#-----------------------------------------------------------------|
F#-----------------------------------------------------------------|
C#-8---7-------8---7-------8---7-------8---7-----------------------|
G#-8---7-------8---7-------8---7-------8---7-------5-5-5-5-5-5-5-5-|
C#-8---7-------8---7-------8---7-------8---7-----------------------|
Pm                                                 . . . . . . . .

Guitar 2 (Pitch Effect 12 Frets Increased)
D#-----------------------------------------------------------------|
A#-6~~~~-----10--6---6~~~/~~~~~~~~~~~~~~~~~~~~~~~~~18~~~~~~~~~~~~~-|
F#-------7---------------------------------------------------------|
C#-----------------------------------------------------------------|
G#-----------------------------------------------------------------|
C#-----------------------------------------------------------------|

===================================================================

Guitar 1
D#-----------------------------------------------------------------|
A#-----------------------------------------------------------------|
F#-----------------------------------------------------------------|
C#-8---7-------8---7-------8---7-------8---7-----------------------|
G#-8---7-------8---7-------8---7-------8---7-------7---8---7-------|
C#-8---7-------8---7-------8---7-------8---7-------------------10--|

Guitar 2
D#-----------------------------------------------------------------|
A#-----------------------------------------------------------------|
F#/14~~~~~~~~~~~~~~~~~~~-10--12------------------------------------|
C#-----------------------------------------------------------------|
G#-------------------------------11--11-11-10--8---11--10----------|
C#---------------------------------------------------------12\~~~~-|

===================================================================

Guitar 1
D#-----------------------------------------------------------------|
A#-----------------------------------------------------------------|
F#-------------------------------------------------7---7---7---7---|
C#-8---7-------8---7-------8---7-------8---7-------7---7---7---7---|
G#-8---7-------8---7-------8---7-------8---7-------5---5---5---5---|
C#-8---7-------8---7-------8---7-------8---7-----------------------|
Pm                                                 .   .   .   .

Guitar 2
D#--------------------------------------13~~~~~~~~~-14b~~~~~~~~~~~-|
A#------------------------------14--14b~~~~-14--14b----------------|
F#-----------------------------------------------------------------|
C#--------------10-------------------------------------------------|
G#-12--10-12-13-----12-10-12-13------------------------------------|
C#-----------------------------------------------------------------|

===================================================================

Guitar 1
D#-----------------------------------------------------------------|
A#-----------------------------------------------------------------|
F#-7---7---7---9---9---9---10--10--10--12--12--12------------------|
C#-7---7---7---9---9---9---10--10--10--12--12--12----------10--12--|
G#-5---5---5---7---7---7---8---8---8---10--10--10--10--12----------|
C#-----------------------------------------------------------------|

Guitar 2 (Pitch Effect Off)
D#t17p15p13t20p15p13t17p15p13t20p15p13-15h17p15-------|
A#----------------------------------------------18-15-|
F#----------------------------------------------------|
C#----------------------------------------------------|
G#----------------------------------------------------|
C#----------------------------------------------------|

Guitar 2 continued
D#-------------------------------------|
A#-18p17p15-20p18p17-18p17p15----------|
F#----------------------------19p17p15-|
C#-------------------------------------|
G#-------------------------------------|
C#-------------------------------------|

===================================================================
===================================================================


Interlude

Guitar 1
D#-----------------------------------------------------------------|
A#-----------------------------------------------------------------|
F#-----------------------------------------------------------------|
C#-----------------------------------------------------------------|
G#-----------------------------------------------------------------|
C#-0~~~~~~-3---0---5~b~r~~-3---0~~~~~~~~~~-3---0---5~b~~-----------|

Guitar 2
D#-22~~~~~~~~~~~~~~~~~~~~~~~~~~~~~~~~~~~~~~~~~~~~~-----------------|
A#-----------------------------------------------------------------|
F#-------------------------------------------------9~b~~~~~~~~~r~~-|
C#-----------------------------------------------------------------|
G#-----------------------------------------------------------------|
C#-----------------------------------------------------------------|

===================================================================

Guitar 1
D#-----------------------------------------------------------------|
A#-----------------------------------------------------------------|
F#-----------------------------------------------------------------|
C#-----------------------------------------------------------------|
G#-----------------------------------------------------------------|
C#-0~~~~~~-3---0---5~b~r~~-3---0~~~~~~~~~~-3---0---5~b~~-----------|

Guitar 2
D#-----------------------------------------------------------------|
A#-----------------------------------------------------------------|
F#-7~~~~~~~~~~~~~~~~~~~~~~~~~~~~~~~~~~~~~~~~~~~~~~-9~b~~~~~~~~~r~~-
C#-----------------------------------------------------------------|
G#-----------------------------------------------------------------|
C#-----------------------------------------------------------------|

===================================================================

Guitar 1
D#-----------------------------------------------------------------|
A#-----------------------------------------------------------------|
F#-----------------------------------------------------------------|
C#-----------------------------------------------------------------|
G#-----------------------------------------------------------------|
C#-0~~~~~~-3---0---5~b~r~~-3---0~~~~~~~~~~-3---0---5~b~~-----------|

Guitar 2
D#-----------------------------------------------------------------|
A#-----------------------------------------------------------------|
F#-7~~~~~~~~~~~~~~~~~~~~~~~~~~~~~~~~~~~~~~~~~~~~~~-9~b~~~~~~~~~r~~-
C#-----------------------------------------------------------------|
G#-----------------------------------------------------------------|
C#-----------------------------------------------------------------|

===================================================================

Guitar 1
D#-----------------------------------------------------------------|
A#-----------------------------------------------------------------|
F#-----------------------------------------------------------------|
C#-----------------------------------------------------------------|
G#-----------------------------------------------------------------|
C#-0~~~~~~-3---0---------------------------------------------------|

Guitar 2
D#-----------------------------------------------------------------|
A#-----------------------------------------------------------------|
F#-7~~~~~~~~~~~~---------------------------------------------------|
C#-----------------------------------------------------------------|
G#-----------------------------------------------------------------|
C#-----------------------------------------------------------------|

===================================================================
===================================================================


Chorus 1

Guitar 1
D#-----------------------------------------------------------------|
A#-----------------------------------------------------------------|
F#-----------------------------------------------------------------|
C#-0---0---0---0---0---0---0---0---0---0---0---0---0---0---0---0---|
G#-0---0---0---0---0---0---0---0---0---0---0---0---0---0---0---0---|
C#-0---0---0---0---0---0---0---0---0---0---0---0---0---0---0---0---|

Guitar 2
D#-----------------------------------------------------------------|
A#-----------------------------------------------------------------|
F#-7---7---7---7---7---7---7---7---7---7---7---7---7---7---7---7---|
C#-x---x---x---x---x---x---x---x---x---x---x---x---x---x---x---x---|
G#-5---5---5---5---5---5---5---5---5---5---5---5---5---5---5---5---|
C#-----------------------------------------------------------------|

===================================================================

Guitar 1
D#-----------------------------------------------------------------|
A#-----------------------------------------------------------------|
F#-----------------------------------------------------------------|
C#-3---3---3---3---3---3---3---3---3---3---3---3---3---3---3---3---|
G#-3---3---3---3---3---3---3---3---3---3---3---3---3---3---3---3---|
C#-3---3---3---3---3---3---3---3---3---3---3---3---3---3---3---3---|

Guitar 2
D#-----------------------------------------------------------------|
A#-----------------------------------------------------------------|
F#-10--10--10--10--10--10--10--10--10--10--10--10--10--10--10--10--|
C#-x---x---x---x---x---x---x---x---x---x---x---x---x---x---x---x---|
G#-8---8---8---8---8---8---8---8---8---8---8---8---8---8---8---8---|
C#-----------------------------------------------------------------|

===================================================================

Guitar 1
D#-----------------------------------------------------------------|
A#-----------------------------------------------------------------|
F#-----------------------------------------------------------------|
C#-5---5---5---5---5---5---5---5---5---5---5---5---5---5---5---5---|
G#-5---5---5---5---5---5---5---5---5---5---5---5---5---5---5---5---|
C#-5---5---5---5---5---5---5---5---5---5---5---5---5---5---5---5---|

Guitar 2
D#-----------------------------------------------------------------|
A#-----------------------------------------------------------------|
F#-12--12--12--12--12--12--12--12--12--12--12--12--12--12--12--12--|
C#-x---x---x---x---x---x---x---x---x---x---x---x---x---x---x---x---|
G#-10--10--10--10--10--10--10--10--10--10--10--10--10--10--10--10--|
C#-----------------------------------------------------------------|

===================================================================

Guitar 1
D#-----------------------------------------------------------------|
A#-----------------------------------------------------------------|
F#-----------------------------------------------------------------|
C#-8---8---8---8---8---8---8---8---8---8---8---8---8---8---8---8---|
G#-8---8---8---8---8---8---8---8---8---8---8---8---8---8---8---8---|
C#-8---8---8---8---8---8---8---8---8---8---8---8---8---8---8---8---|

Guitar 2
D#-----------------------------------------------------------------|
A#---------------------------------10--10--11--11--13--13--15--15--|
F#-7---7---9---9---10--10--12--12--x---x---x---x---x---x---x---x---|
C#-x---x---x---x---x---x---x---x---7---7---8---8---10--10--12--12--|
G#-5---5---7---7---8---8---10--10----------------------------------|
C#-----------------------------------------------------------------|

===================================================================

Guitar 1
D#-----------------------------------------------------------------|
A#-----------------------------------------------------------------|
F#-----------------------------------------------------------------|
C#-0---0---0---0---0---0---0---0---0---0---0---0---0---0---0---0---|
G#-0---0---0---0---0---0---0---0---0---0---0---0---0---0---0---0---|
C#-0---0---0---0---0---0---0---0---0---0---0---0---0---0---0---0---|

Guitar 2
D#-----------------------------------------------------------------|
A#-15--15--15--15--15--15--15--15--15--15--15--15--15--15--15--15--|
F#-x---x---x---x---x---x---x---x---x---x---x---x---x---x---x---x---|
C#-12--12--12--12--12--12--12--12--12--12--12--12--12--12--12--12--|
G#-----------------------------------------------------------------|
C#-----------------------------------------------------------------|

===================================================================

Guitar 1
D#-----------------------------------------------------------------|
A#-----------------------------------------------------------------|
F#-----------------------------------------------------------------|
C#-3---3---3---3---3---3---3---3---3---3---3---3---3---3---3---3---|
G#-3---3---3---3---3---3---3---3---3---3---3---3---3---3---3---3---|
C#-3---3---3---3---3---3---3---3---3---3---3---3---3---3---3---3---|

Guitar 2
D#-----------------------------------------------------------------|
A#-13--13--13--13--13--13--13--13--13--13--13--13--13--13--13--13--|
F#-x---x---x---x---x---x---x---x---x---x---x---x---x---x---x---x---|
C#-10--10--10--10--10--10--10--10--10--10--10--10--10--10--10--10--|
G#-----------------------------------------------------------------|
C#-----------------------------------------------------------------|

===================================================================

Guitar 1
D#-----------------------------------------------------------------|
A#-----------------------------------------------------------------|
F#-----------------------------------------------------------------|
C#-5---5---5---5---5---5---5---5---5---5---5---5---5---5---5---5---|
G#-5---5---5---5---5---5---5---5---5---5---5---5---5---5---5---5---|
C#-5---5---5---5---5---5---5---5---5---5---5---5---5---5---5---5---|

Guitar 2
D#-----------------------------------------------------------------|
A#-15--15--15--15--15--15--15--15--15--15--15--15--15--15--15--15--|
F#-x---x---x---x---x---x---x---x---x---x---x---x---x---x---x---x---|
C#-12--12--12--12--12--12--12--12--12--12--12--12--12--12--12--12--|
G#-----------------------------------------------------------------|
C#-----------------------------------------------------------------|

===================================================================

Guitar 1
D#-----------------------------------------------------------------|
A#-----------------------------------------------------------------|
F#-----------------------------------------------------------------|
C#-8---8---8---8---8---8---8---8---8---10--10--10--10--10--10--10--|
G#-8---8---8---8---8---8---8---8---8---10--10--10--10--10--10--10--|
C#-8---8---8---8---8---8---8---8---8---10--10--10--10--10--10--10--|

Guitar 2
D#-----------------------------------------------------------------|
A#-11--11--11--11--11--11--11--11--11--13--13--13--13--13--13--13--|
F#-x---x---x---x---x---x---x---x---x---x---x---x---x---x---x---x---|
C#-8---8---8---8---8---8---8---8---8---10--10--10--10--10--10--10--|
G#-----------------------------------------------------------------|
C#-----------------------------------------------------------------|

===================================================================
===================================================================


Chorus 2 (Same as Chorus 1)

Guitar 1
D#-----------------------------------------------------------------|
A#-----------------------------------------------------------------|
F#-----------------------------------------------------------------|
C#-0---0---0---0---0---0---0---0---0---0---0---0---0---0---0---0---|
G#-0---0---0---0---0---0---0---0---0---0---0---0---0---0---0---0---|
C#-0---0---0---0---0---0---0---0---0---0---0---0---0---0---0---0---|

Guitar 2
D#-----------------------------------------------------------------|
A#-----------------------------------------------------------------|
F#-7---7---7---7---7---7---7---7---7---7---7---7---7---7---7---7---|
C#-x---x---x---x---x---x---x---x---x---x---x---x---x---x---x---x---|
G#-5---5---5---5---5---5---5---5---5---5---5---5---5---5---5---5---|
C#-----------------------------------------------------------------|

===================================================================

Guitar 1
D#-----------------------------------------------------------------|
A#-----------------------------------------------------------------|
F#-----------------------------------------------------------------|
C#-3---3---3---3---3---3---3---3---3---3---3---3---3---3---3---3---|
G#-3---3---3---3---3---3---3---3---3---3---3---3---3---3---3---3---|
C#-3---3---3---3---3---3---3---3---3---3---3---3---3---3---3---3---|

Guitar 2
D#-----------------------------------------------------------------|
A#-----------------------------------------------------------------|
F#-10--10--10--10--10--10--10--10--10--10--10--10--10--10--10--10--|
C#-x---x---x---x---x---x---x---x---x---x---x---x---x---x---x---x---|
G#-8---8---8---8---8---8---8---8---8---8---8---8---8---8---8---8---|
C#-----------------------------------------------------------------|

===================================================================

Guitar 1
D#-----------------------------------------------------------------|
A#-----------------------------------------------------------------|
F#-----------------------------------------------------------------|
C#-5---5---5---5---5---5---5---5---5---5---5---5---5---5---5---5---|
G#-5---5---5---5---5---5---5---5---5---5---5---5---5---5---5---5---|
C#-5---5---5---5---5---5---5---5---5---5---5---5---5---5---5---5---|

Guitar 2
D#-----------------------------------------------------------------|
A#-----------------------------------------------------------------|
F#-12--12--12--12--12--12--12--12--12--12--12--12--12--12--12--12--|
C#-x---x---x---x---x---x---x---x---x---x---x---x---x---x---x---x---|
G#-10--10--10--10--10--10--10--10--10--10--10--10--10--10--10--10--|
C#-----------------------------------------------------------------|

===================================================================

Guitar 1
D#-----------------------------------------------------------------|
A#-----------------------------------------------------------------|
F#-----------------------------------------------------------------|
C#-8---8---8---8---8---8---8---8---8---8---8---8---8---8---8---8---|
G#-8---8---8---8---8---8---8---8---8---8---8---8---8---8---8---8---|
C#-8---8---8---8---8---8---8---8---8---8---8---8---8---8---8---8---|

Guitar 2
D#-----------------------------------------------------------------|
A#---------------------------------10--10--11--11--13--13--15--15--|
F#-7---7---9---9---10--10--12--12--x---x---x---x---x---x---x---x---|
C#-x---x---x---x---x---x---x---x---7---7---8---8---10--10--12--12--|
G#-5---5---7---7---8---8---10--10----------------------------------|
C#-----------------------------------------------------------------|

===================================================================

Guitar 1
D#-----------------------------------------------------------------|
A#-----------------------------------------------------------------|
F#-----------------------------------------------------------------|
C#-0---0---0---0---0---0---0---0---0---0---0---0---0---0---0---0---|
G#-0---0---0---0---0---0---0---0---0---0---0---0---0---0---0---0---|
C#-0---0---0---0---0---0---0---0---0---0---0---0---0---0---0---0---|

Guitar 2
D#-----------------------------------------------------------------|
A#-15--15--15--15--15--15--15--15--15--15--15--15--15--15--15--15--|
F#-x---x---x---x---x---x---x---x---x---x---x---x---x---x---x---x---|
C#-12--12--12--12--12--12--12--12--12--12--12--12--12--12--12--12--|
G#-----------------------------------------------------------------|
C#-----------------------------------------------------------------|

===================================================================

Guitar 1
D#-----------------------------------------------------------------|
A#-----------------------------------------------------------------|
F#-----------------------------------------------------------------|
C#-3---3---3---3---3---3---3---3---3---3---3---3---3---3---3---3---|
G#-3---3---3---3---3---3---3---3---3---3---3---3---3---3---3---3---|
C#-3---3---3---3---3---3---3---3---3---3---3---3---3---3---3---3---|

Guitar 2
D#-----------------------------------------------------------------|
A#-13--13--13--13--13--13--13--13--13--13--13--13--13--13--13--13--|
F#-x---x---x---x---x---x---x---x---x---x---x---x---x---x---x---x---|
C#-10--10--10--10--10--10--10--10--10--10--10--10--10--10--10--10--|
G#-----------------------------------------------------------------|
C#-----------------------------------------------------------------|

===================================================================

Guitar 1
D#-----------------------------------------------------------------|
A#-----------------------------------------------------------------|
F#-----------------------------------------------------------------|
C#-5---5---5---5---5---5---5---5---5---5---5---5---5---5---5---5---|
G#-5---5---5---5---5---5---5---5---5---5---5---5---5---5---5---5---|
C#-5---5---5---5---5---5---5---5---5---5---5---5---5---5---5---5---|

Guitar 2
D#-----------------------------------------------------------------|
A#-15--15--15--15--15--15--15--15--15--15--15--15--15--15--15--15--|
F#-x---x---x---x---x---x---x---x---x---x---x---x---x---x---x---x---|
C#-12--12--12--12--12--12--12--12--12--12--12--12--12--12--12--12--|
G#-----------------------------------------------------------------|
C#-----------------------------------------------------------------|

===================================================================

Guitar 1
D#-----------------------------------------------------------------|
A#-----------------------------------------------------------------|
F#-----------------------------------------------------------------|
C#-8---8---8---8---8---8---8---8---8---10--10--10--10--10--10--10--|
G#-8---8---8---8---8---8---8---8---8---10--10--10--10--10--10--10--|
C#-8---8---8---8---8---8---8---8---8---10--10--10--10--10--10--10--|

Guitar 2
D#-----------------------------------------------------------------|
A#-11--11--11--11--11--11--11--11--11--13--13--13--13--13--13--13--|
F#-x---x---x---x---x---x---x---x---x---x---x---x---x---x---x---x---|
C#-8---8---8---8---8---8---8---8---8---10--10--10--10--10--10--10--|
G#-----------------------------------------------------------------|
C#-----------------------------------------------------------------|

===================================================================
===================================================================


Outro

Guitar 1
D#-----------------------------------------------------------------|
A#-----------------------------------------------------------------|
F#-----------------------------------------------------------------|
C#-----------------------------------------------------------------|
G#-----------------------------------------------------------------|
C#-0~~~~~~-3---0---5~b~r~~-3---0~~~~~~~~~~-3---0---5~b~~-----------|

Guitar 2
D#-----------------------------------------------------------------|
A#---------18------20b~r~~-18--------------18------20b~~-----------|
F#-19~~~~~-----19--------------19~~~~~~~~~-----19------------------|
C#-----------------------------------------------------------------|
G#-----------------------------------------------------------------|
C#-----------------------------------------------------------------|

===================================================================

Guitar 1
D#-----------------------------------------------------------------|
A#-----------------------------------------------------------------|
F#-----------------------------------------------------------------|
C#-----------------------------0~~~~~~~~~~~~~~~~~~~~~~~~~~~~~~~~~~-|
G#-----------------------------0~~~~~~~~~~~~~~~~~~~~~~~~~~~~~~~~~~-|
C#-0~~~~~~-3---0---5~b~r~~-3---0~~~~~~~~~~~~~~~~~~~~~~~~~~~~~~~~~~-|

Guitar 2
D#-----------------------------------------------------------------|
A#---------18------20b~r~~-18--------------------------------------|
F#-19~~~~~-----19--------------19~~~~~~~~~~~~~~~~~~~~~~~~~~~~~~~~~-|
C#-----------------------------------------------------------------|
G#-----------------------------------------------------------------|
C#-----------------------------------------------------------------|

===================================================================


Tab Legend
h - hammer-on
p - pull-off
/ - slide up
\ - slide down
ps/- pickslide up
ps\- pickslide down
~ - let ring
pm.- palm mute
b - bend
r - return from bend
* - harmonic
x - dead note
^ - Whammy bar
^\ - Whammy bar (hold down)

That’s all of it! I hope it helped, and if you’ve got any problems, be sure to check out
my cover for visuals. Thanks, oh and one last thing... ROCK OUT!!!!
Tap to rate this tab
 
# A B C D E F G H I J K L M N O P Q R S T U V W X Y Z