Song name
# A B C D E F G H I J K L M N O P Q R S T U V W X Y Z

Shinedown - Bully tab

Shinedown
Bully

5 String Bass

For all my fellow 5 string players out there!
Rate, Comment, And Ask for more tabs if you like! Thank you!

Tabbed By:Micah Folk
Tempo Approx:160

Intro

G|---------------------------|
D|---------------------------|
A|---------------------------| X4
E|----0---2^r-0-----0---2^---|
B|2-----2-------2-----2------|

Verse

G|---------------------------|
D|---------------------------|
A|---------------------------| X8
E|----0---2^r-0-----0---2^---|
B|2-----2-------2-----2------|

Bridge

G|---------------------------------|
D|---------------------------------|
A|---------------------------------|
E|---------------------------------|
B|22-----22-------22------22-------|

Chorus

G|---------------|----------------|----------------|----------------|
D|---------------|----------------|----------------|----------------|
A|---------------|----------------|----------------|0000000000000000|X2
E|---------------|0000000000000000|2222222222222222|----------------|
B|222222222222222|----------------|----------------|----------------|

Main Riff

G|---------------------------|
D|---------------------------|
A|---------------------------| X2
E|----0---2^r-0-----0---2^---|
B|2-----2-------2-----2------|

Verse

G|---------------------------|
D|---------------------------|
A|---------------------------| X8
E|----0---2^r-0-----0---2^---|
B|2-----2-------2-----2------|

Bridge

G|---------------------------------|
D|---------------------------------|
A|---------------------------------|
E|---------------------------------|
B|22-----22-------22------22-------|

Chorus

G|---------------|----------------|----------------|----------------|
D|---------------|----------------|----------------|----------------|
A|---------------|----------------|----------------|0000000000000000|X2
E|---------------|0000000000000000|2222222222222222|----------------|
B|222222222222222|----------------|----------------|----------------|

Solo

G|----------------|----------------|----------------|----------------|
D|----------------|----------------|----------------|----------------|
A|------------4444|------------4444|------------4444|4446667779999997|
E|544544544544----|544544544544----|544544544544----|----------------|
B|----------------|----------------|----------------|----------------|

G|----------------|----------------|----------------|--------------6-|
D|----------------|----------------|----------------|------------79--|
A|------------4444|------------4444|------------4444|444666777999----|
E|54-54-54-54-----|54-54-54-54-----|54-54-54-54-----|----------------|
B|----------------|----------------|----------------|----------------|


Verse

G|---------------------------|
D|---------------------------|
A|---------------------------| X3
E|----0---2^r-0-----0---2^---|
B|2-----2-------2-----2------|

G|--------|
D|--------|
A|--------|
E|----0---|
B|2-----2-|

Chorus


G|---------------|----------------|----------------|----------------|
D|---------------|----------------|----------------|----------------|
A|---------------|----------------|----------------|0000000000000000|X4
E|---------------|0000000000000000|2222222222222222|----------------|
B|222222222222222|----------------|----------------|----------------|

Ending

G|---------------------------|--------------------|
D|---------------------------|--------------------|
A|---------------------------|--------------------|
E|----0---2^r-0-----0---2^---|----0---2^r-0-------|
B|2-----2-------2-----2------|2-----2------2~~~~~~|

Thanks for Playing!
Tap to rate this tab
 
# A B C D E F G H I J K L M N O P Q R S T U V W X Y Z