Song name
# A B C D E F G H I J K L M N O P Q R S T U V W X Y Z

Shinedown - Through The Ghost tab

This song is amazing. Shinedown
awesome so I thought I'd tab this.
Took a while to find the correct
pitch but I got there. The tab may
not be how Zach from Shinedown
plays the song but it sounds like it
and I think that it is quite accurate.
Enjoy :)


SHINEDOWN - THROUGH THE GHOST


Tuning - Standard (EADGBe)
Capo - 3rd Fret


Intro/Verse

E|---------------------------------------------------------|
B|--------------------------------------0------3-----3-----|
G|------0-----0---------0-----0----------------------------|  x4
D|----4-----4---------0-----0-----0---0------4-----4-----4-|  
A|--7-----7-----7-5-3-----3-----3---------/5-----5-----5---|
E|----------------------------------3----------------------|



Pre Chorus

E|------------------------------------------------------------------|
B|------------------------------------------------------------------|
G|------0-----0---------0-----0---------0-----0---------0-----0-----|  x2
D|----0-----0-----0---0-----0-----0---4-----4-----4---0-----0-----0-|
A|--3-----3-----3---3-----3-----3---7-----7-----7---5-----5-----5---|
E|------------------------------------------------------------------|



Chorus

        C        G    Em
Did you hide yourself away?

        C     G   Em  
I can't see you anymore

        C        G      Em
Did you eclipse another day?

                         A
I used to wake up to the colour of your soul

        C        G    Em
Did you hide yourself away?

        C      G        Em     
Are you living through the ghost?

        C       G     Em
Did you finally find a place

                         A
Above the shadows so the world will never know?

    C
The world will never know you like I do


Verse

E|---------------------------------------------------------|
B|--------------------------------------0------3-----3-----|
G|------0-----0---------0-----0----------------------------|  x3
D|----4-----4---------0-----0-----0---0------4-----4-----4-|  
A|--7-----7-----7-5-3-----3-----3---------/5-----5-----5---|
E|----------------------------------3----------------------|



Pre Chorus

E|------------------------------------------------------------------|
B|------------------------------------------------------------------|
G|------0-----0---------0-----0---------0-----0---------0-----0-----|  x2
D|----0-----0-----0---0-----0-----0---4-----4-----4---0-----0-----0-|
A|--3-----3-----3---3-----3-----3---7-----7-----7---5-----5-----5---|
E|------------------------------------------------------------------|



Chorus

        C        G    Em
Did you hide yourself away?

        C     G   Em  
I can't see you anymore

        C        G      Em
Did you eclipse another day?

                         A
I used to wake up to the colour of your soul

        C        G    Em
Did you hide yourself away?

        C      G        Em     
Are you living through the ghost?

        C       G     Em
Did you finally find a place

                         A
Above the shadows so the world will never know?

    C
The world will never know you like I do


Bridge

This isn't how the bridge is actually played, but it sounds better 
if you play it like this if you have no violins/cellos.

E|------------------------------------------------------------------|
B|------------------------------------------------------------------|
G|------0-----0---------0-----0---------0-----0---------0-----0-----|  x2
D|----0-----0-----0---0-----0-----0---4-----4-----4---0-----0-----0-|
A|--3-----3-----3---3-----3-----3---7-----7-----7---5-----5-----5---|
E|------------------------------------------------------------------|


The bridge is actually played like this:

E|------------------------------------------------------------------|
B|------------------------------------------------------------------|
G|--0-0-0-0-0-0-0-0-0-0-0-0-0-0-0-0-0-0-0-0-0-0-0-0-0-0-0-0-0-0-0-0-|  x2
D|--0-0-0-0-0-0-0-0-0-0-0-0-0-0-0-0-x-x-x-x-x-x-x-x-0-0-0-0-0-0-0-0-|
A|--3-3-3-3-3-3-3-3-3-3-3-3-3-3-3-3-7-7-7-7-7-7-7-7-5-5-5-5-5-5-5-5-|
E|------------------------------------------------------------------|



Chorus

        C        G    Em
Did you hide yourself away?

        C     G   Em  
I can't see you anymore

        C        G      Em
Did you eclipse another day?

                         A
I used to wake up to the colour of your soul

        C        G    Em
Did you hide yourself away?

        C      G        Em     
Are you living through the ghost?

        C       G     Em
Did you finally find a place

                         A
Above the shadows so the world will never know?

    C
The world will never know you




If you want to add the violin into the chorus, you can use this:

E|--------------|
B|--------------|
G|--------------|
D|--5-5-4-4p2-2-|
A|--------------|
E|--------------|




Tap to rate this tab
# A B C D E F G H I J K L M N O P Q R S T U V W X Y Z