Guitaretab - guitar tabs
Song name
# A B C D E F G H I J K L M N O P Q R S T U V W X Y Z

Showoff - Tell Me tab

Showoff
"Tell Me"
TABBED BY:Jim Warren


STANDARD TUNING


GUITAR 1

INTRO
E------------------------
B---31001033---310010----
G-00----------0------00--
D------------------------       (2x)
A------------------------
E------------------------

[ Tab from: http://www.guitaretab.com/s/showoff/120363.html ]
E---------------------------------------------
B--3-5310----------------3-5310-33335557778/0-
G-0-0--------2-4202020--0-0-------------------
D----------00-0-------------------------------
A---------------------------------------------
E---------------------------------------------


VERSE (I don't know the the end of the verse when he says, "Tell me how you feel about me.")
E----------------
B----------------
G-----777-555555-     REPEAT
D-555-777-555555-
A-555-555-333333-
E-333------------

PLAY INTRO BUT FAST

E------------
B------------
G----5--7--5-
D-5--5--7--5-     REPEAT
A-5--3--5--3-
E-3----------

SOME PARTS OF THE SONG ARE SIMILAR, SO I GOT LAZY AND DIDN'T WRITE THEM.

Questions/Comments?  Jim3EB32786@AOL.com
Related for Tell Me tab
×
Tell Me