Song name
# A B C D E F G H I J K L M N O P Q R S T U V W X Y Z

Showoff - Bully tab

Song: Bully
Artist: Showoff
Tuning: Standard
Tabbed by: Paul

. - Palm Mute
~ - Let Ring
\ - Slide Down

Intro
e|---------------------------------------------------------------------|
B|---------------------------------------------------------------------| 2x
G|--4-4-4-4-4-4-4--6-6-6-6-6-6-6--9-9-9-9-9-9-9--11-11-11-11-11-11-11--|
D|--4-4-4-4-4-4-4--6-6-6-6-6-6-6--9-9-9-9-9-9-9--11-11-11-11-11-11-11--|
A|--2-2-2-2-2-2-2--4-4-4-4-4-4-4--7-7-7-7-7-7-7--9--9--9--9--9--9--9---|
E|---------------------------------------------------------------------|
    .............  .............  .............  ....................

When I was younger...
e|---------------------------------------------------------------------|
B|---------------------------------------------------------------------| 2x
G|--4-4-4-4-4-4-4--6-6-6-6-6-6-6--9-9-9-9-9-9-9--11-11-11-11-11-11-11--|
D|--4-4-4-4-4-4-4--6-6-6-6-6-6-6--9-9-9-9-9-9-9--11-11-11-11-11-11-11--|
A|--2-2-2-2-2-2-2--4-4-4-4-4-4-4--7-7-7-7-7-7-7--9--9--9--9--9--9--9---|
E|---------------------------------------------------------------------|
    .............  .............  .............  ....................

Now I can...
e|------------------------|
B|------------------------| 2x
G|--4-4--6-6--9-9--11-11--|
D|--4-4--6-6--9-9--11-11--|
A|--2-2--4-4--7-7--9--9---|
E|------------------------|

And now I'm looking back...
e|---------------|
B|---------------| 2x
G|--4~-6~-9~-11~-|
D|--4~-6~-9~-11~-|
A|--2~-4~-7~-9~~-|
E|---------------|

My self-confidence is my drug...
e|---------------|
B|---------------| 4x
G|--4~----9~-11~-|
D|--4~-6~-9~-11~-|
A|--2~-6~-7~-9~~-|
E|-----4~--------|

Repeat

Solo
e|--------------------------------------|
B|--------------------------------------| 2x
G|--------------------------------------|
D|-----4--2-----4-----------------------|
A|--2--------2-----6-----6--4--7--6--7--|
E|--------------------4-----------------|

Guitar 2 (during solo)
e|--------------|
B|--------------| 2x
G|--4~-------9~-|
D|--4~-7~-6~-9~-|
A|--2~-7~-6~-7~-|
E|-----5~-4~----|

I'm feeling high and mighty...
e|--------------|
B|--------------| 4x
G|--4~-------9~-|
D|--4~-7~-6~-9~-|
A|--2~-7~-6~-7~-|
E|-----5~-4~----|

I'm feeling hiiiiiiiigh...
e|-------------------------------|
B|-------------------------------|
G|--9-9-9-9-9-9-9-9-9-9-9-9-9-9--|
D|--9-9-9-9-9-9-9-9-9-9-9-9-9-9--|
A|--7-7-7-7-7-7-7-7-7-7-7-7-7-7--|
E|-------------------------------|

And mighty...
e|-------|
B|-------|
G|--4\---|
D|--4\---|
A|--2\---|
E|-------|

Tapos na! First tab ko 'to. Kung may comments kau, e-mail nio lng ako, pa31ul@yahoo.com, all right?
Hello sa mga kabanda ko! Si Jose, Topher, Beltimar... chaka kay Aldo! Hehehe.
Tap to rate this tab
# A B C D E F G H I J K L M N O P Q R S T U V W X Y Z