Song name
# A B C D E F G H I J K L M N O P Q R S T U V W X Y Z

Showoff - Borderline tab

+++++++++++++++++++++++
| Showoff- Borderline |
+++++++++++++++++++++++

EADGBe

This is my first guitar tab
So go easy on me :D
Anyways I think its really good
Enjoy!

Intro: Guitar 1
1.
e|------------------------------------------------------------|
B|----------------9~-9-9---7~--7-----------------------5------|
G|-------8--9--11--------9-------6~--2~-------2~---------4-4~-|
D|--------------------------------------0-2-4----0-2-4--------|
A|------------------------------------------------------------|
E|------------------------------------------------------------|

Intro: Guitar 2
2.
e|------------------------------------------------------------|
B|-----------------5--7~--------------------5-----------------|
G|-9~----8~----6~--4--6~--------2~----2~----4--4-4~-----------|
D|-9~----8~----6~--2--4~--------2~----2~----2--4-4~-----------|
A|-7~----6~----4~---------------0~----0~-------2-2~-----------|
E|------------------------------------------------------------|

Guitar 1
3.
e|---7---7-----------------------------------7---7------------------|
B|-5---5---7h8p7~--5~--7-9~--7-9-7-5-7-55--5---5---7h8p7~--5~--2-0~-|
G|------------------------------------------------------------------|
D|------------------------------------------------------------------|
A|------------------------------------------------------------------|
E|------------------------------------------------------------------|

Guitar 2
4.
e|------------------------------------------------------------|
B|-5-5-5-5-5-5-5-5-5------------------------------------------|
G|-4-4-4-4-4-4-4-4-4-7-7-7-6-6-6-4-4--------------------------|
D|-2-2-2-2-2-2-2-2-2-7-7-7-6-6-6-4-4--------------------------|
A|-------------------5-5-5-4-4-4-2-2--------------------------|--x4
E|------------------------------------------------------------|

Verse: Guitar 2
"So baby wont you set me free.."
5.
e|------------------------------------------------------------|
B|------------------------------------------------------------|
G|------------------------------------------------------------|
D|-11-11-10-10-9-9-8-8-7-7-6-6-5-5-4-4------------------------|
A|-11-11-10-10-9-9-8-8-7-7-6-6-5-5-4-4------------------------|
E|-9--9--8--8--7-7-6-6-5-5-4-4-3-3-2-2------------------------|

Both Guitars
"Stop playing with my heart.."
6.
e|------------------------------------------------------------|
B|-5-5-5----5-5-5-5-------------------------------------------|
G|-4-4-4-4--4-4-4-4-4-7-7-7-6-6-6-4-4-------------------------|
D|-2-2-2-4--2-2-2-2-4-7-7-7-6-6-6-4-4-------------------------|
A|-------2----------2-5-5-5-4-4-4-2-2-------------------------|--x3
E|------------------------------------------------------------|

Guitar 1
"Honey dont you fool around.."
7.
e|------------------------------------------------------------|
B|-5-5-5---5-5-5---5-5-5--------------------------------------|
G|-4-4-4-4-4-4-4-4-4-4-4--------------------------------------|
D|-2-2-2-4-2-2-2-4-2-2-2--9-7-6-------------------------------|
A|-------2-------2--------------------------------------------|
E|------------------------------------------------------------|

Pre-Chorus: Guitar 1
"Just try to understand.."
8.
e|--------------------------------------------------------------------|
B|--------------------------------------------------------------------|
G|------------------------------------------2-2-222---4-4-4-44-4-4-4~-|
D|----------3-3-333-4-4-444---------2-2-222-----------4-4-4-44-4-4-4~-|
A|--4-4-444-----------------2-2-222-----------------4-2-2-2-22-2-2-2~-|
E|--------------------------------------------------------------------|

Pre-Chorus: Guitar 2
"Just try to understand.."
9.
e|------------------------------------------5-5-555-------------------|
B|----------6-6-666-7-7-777---------5-5-555-5-5-555-------------------|
G|--6-6-666-5-5-555-6-6-666-4-4-444-4-4-444-2-2-222---4-4-4-44-4-4-4~-|
D|--6-6-666-3-3-333-4-4-444-4-4-444-2-2-222-----------4-4-4-44-4-4-4~-|
A|--4-4-444-----------------2-2-222-----------------4-2-2-2-22-2-2-2~-|
E|--------------------------------------------------------------------|

Chorus: Guitar 1
"Borderline..."
10.
e|--------------------------------------------------------------|
B|--------------------------------------------------------------|
G|--4~----------------------------------------------------------|
D|--------2-4-6~--2-4-6---6-6-5-5-4~---------2-2-22-2-----2-----|
A|---------------------7--------------0-0-00---------22~---22~--|--x2
E|--------------------------------------------------------------|

Chorus: Guitar 2
"Borderline..."
11.
e|--------------------------------------------------------------|
B|-------------------------------------------5-5-55-5-----5-----|
G|--8-8-8-8-5-5-5-5-6-6-4-4-3~--------2-2-22-4-4-44-444~--444~--|
D|--8-8-8-8-5-5-5-5-6-6-4-4-3~--------2-2-22-2-2-22-244~--244~--|
A|--6-6-6-6-3-3-3-3-4-4-2-2-1~--------0-0-00---------22~---22~--|--x2
E|--------------------------------------------------------------|

Outro: Guitar 1
12.
e|---7---7-----------------------------------7---7------------------|
B|-5---5---7h8p7~--5~--7-9~--7-9-7-5-7-55--5---5---7h8p7~--5~--2-0~-|
G|------------------------------------------------------------------|
D|------------------------------------------------------------------|
A|------------------------------------------------------------------|
E|------------------------------------------------------------------|

Outro: Guitar 2
13.
e|------------------------------------------------------------|
B|-5-5-5-5-5-5-5-5-5------------------------------------------|
G|-4-4-4-4-4-4-4-4-4-7-7-7-6-6-6-4-4--------------------------|
D|-2-2-2-2-2-2-2-2-2-7-7-7-6-6-6-4-4--------------------------|
A|-------------------5-5-5-4-4-4-2-2--------------------------|--x4
E|------------------------------------------------------------|

Verse: Both Guitars
"Something in your eyes.."
14.
e|------------------------------------------------------------|
B|-5-5-5----5-5-5-5-------------------------------------------|
G|-4-4-4-4--4-4-4-4-4-7-7-7-6-6-6-4-4-------------------------|
D|-2-2-2-4--2-2-2-2-4-7-7-7-6-6-6-4-4-------------------------|
A|-------2----------2-5-5-5-4-4-4-2-2-------------------------|--x4
E|------------------------------------------------------------|

Verse 2: Guitar 1
"Then you let me down..."
15.
e|----------------------------------------------------------|
B|-5----5---------------------------------------------------|
G|-4----4----7----6-----------------------------------------|
D|-2----2----7----6-----------------------------------------|
A|-----------5----4-----------------------------------------|--x3
E|----------------------------------------------------------|

Verse 2: Guitar 2
"Then you let me down..."
16.
e|----------------------------------------------------------|
B|---5----5-------------------------------------------------|
G|---4----4----7----6---------------------------------------|
D|---2----2----7----6---------------------------------------|
A|-------------5----4---------------------------------------|--x3
E|----------------------------------------------------------|

Guitar 1
"But theres something I just got to say..."
17.
e|------------------------------------------------------------|
B|-5-5-5---5-5-5---5-5-5--------------------------------------|
G|-4-4-4-4-4-4-4-4-4-4-4--------------------------------------|
D|-2-2-2-4-2-2-2-4-2-2-2--9-7-6-------------------------------|
A|-------2-------2--------------------------------------------|
E|------------------------------------------------------------|

Pre-Chorus: Guitar 1
"Just try to understand.."
18.
e|--------------------------------------------------------------------|
B|--------------------------------------------------------------------|
G|------------------------------------------2-2-222---4-4-4-44-4-4-4~-|
D|----------3-3-333-4-4-444---------2-2-222-----------4-4-4-44-4-4-4~-|
A|--4-4-444-----------------2-2-222-----------------4-2-2-2-22-2-2-2~-|
E|--------------------------------------------------------------------|

Pre-Chorus: Guitar 2
"Just try to understand.."
19.
e|------------------------------------------5-5-555-------------------|
B|----------6-6-666-7-7-777---------5-5-555-5-5-555-------------------|
G|--6-6-666-5-5-555-6-6-666-4-4-444-4-4-444-2-2-222---4-4-4-44-4-4-4~-|
D|--6-6-666-3-3-333-4-4-444-4-4-444-2-2-222-----------4-4-4-44-4-4-4~-|
A|--4-4-444-----------------2-2-222-----------------4-2-2-2-22-2-2-2~-|
E|--------------------------------------------------------------------|

Chorus: Guitar 1
"Borderline..."
20.
e|--------------------------------------------------------------|
B|--------------------------------------------------------------|
G|--4~----------------------------------------------------------|
D|--------2-4-6~--2-4-6---6-6-5-5-4~---------2-2-22-2-----2-----|
A|---------------------7--------------0-0-00---------22~---22~--|--x2
E|--------------------------------------------------------------|

Chorus: Guitar 2
"Borderline..."
21.
e|--------------------------------------------------------------|
B|-------------------------------------------5-5-55-5-----5-----|
G|--8-8-8-8-5-5-5-5-6-6-4-4-3~--------2-2-22-4-4-44-444~--444~--|
D|--8-8-8-8-5-5-5-5-6-6-4-4-3~--------2-2-22-2-2-22-244~--244~--|
A|--6-6-6-6-3-3-3-3-4-4-2-2-1~--------0-0-00---------22~---22~--|--x2
E|--------------------------------------------------------------|

Outro: Both Guitars
"Keep pushing me..."
22.
e|----------------------------------------------------------------|
B|----------------------------------------------------------------|
G|-8-8-8-8-8-8-8-7-5-5-5-5-5-7-8-5-6-6-6-6-4-4-4-3-3-3-3-3-3-3-3--|
D|-8-8-8-8-8-8-8-7-5-5-5-5-5-7-8-5-6-6-6-6-4-4-4-3-3-3-3-3-3-3-3--|
A|-6-6-6-6-6-6-6-5-3-3-3-3-3-5-6-3-4-4-4-4-2-2-2-1-1-1-1-1-1-1-1--|
E|----------------------------------------------------------------|

23.
e|----------------------------------------------------------------|
B|-----------------5-5-5-5-5-5-5-5--5------5----------------------|
G|-2-2-2-2-2-2-2-2-4-4-4-4-4-4-4-4--4-44~--4-44~------------------|
D|-2-2-2-2-2-2-2-2-2-2-2-2-2-2-2-2--2-44~--2-44~------------------|
A|-0-0-0-0-0-0-0-0--------------------22~----22~------------------|
E|----------------------------------------------------------------|
Tap to rate this tab
 
# A B C D E F G H I J K L M N O P Q R S T U V W X Y Z