Song name
# A B C D E F G H I J K L M N O P Q R S T U V W X Y Z

Sick Puppies - Nothing Really Matters tab

Tuned Down half a tone, with dropped D  
Db Ab Db Gb Bb eb 

 
Intro 
(CLEAN) 
eb----------------------------|  
Bb----------------------------|  
Gb-----------------5----------|(x3) 
Db-----7-7-----7-----5h7------| 
Ab-5-5-----5-5---5------------| 
Db----------------------------| 
 
eb----------------------------|  
Bb----------------------------|  
Gb-----------------5-5h7------| 
Db-----7-7-----7--------------| 
Ab-5-5-----5-5---5------------| 
Db----------------------------| 
 
eb----------------------------|  
Bb----------------------------|  
Gb-----------------5----------|(x3) 
Db-----7-7-----7-----5h7------| 
Ab-5-5-----5-5---5------------| 
Db----------------------------| 
 
eb----------------------------|  
Bb----------------------------|  
Gb----------------------------| 
Db-----7-7--------------------| 
Ab-5-5-----5-5----------------| 
Db----------------------------| 
 
(~DISTORTION FROM THIS POINT ONWARDS~) 
eb----------------------------------------------------------|  
Bb----------------------------------------------------------|  
Gb----------------------------------------------------------|(x2) 
Db-------1-1---------1-1---------1-1---------3-3------------| 
Ab-0--0--1-1---0--0--1-1---0--0--1-1---0--0--3-3------------| 
Db-0--0--1-1---0--0--1-1---0--0--1-1---0--0--3-3------------| 
 
eb----------------------------------------------------------|  
Bb----------------------------------------------------------|  
Gb----------------------------------------------------------| 
Db-0--0--7h8-8-8--0--0--7h8-8-8--0--0--7h8-8-8--0--0--3-3---| 
Ab-0--0--7h8-8-8--0--0--7h8-8-8--0--0--7h8-8-8--0--0--3-3---| 
Db-0--0-----------0--0-----------0--0-----------0--0--3-3---| 
 
eb----------------------------------------------------------|  
Bb----------------------------------------------------------|  
Gb----------------------------------------------------------| 
Db-------1-1---------1-1---------1-1---------3-3------------| 
Ab-0--0--1-1---0--0--1-1---0--0--1-1---0--0--3-3------------| 
Db-0--0--1-1---0--0--1-1---0--0--1-1---0--0--3-3------------| 
 
eb----------------------------------------------------------|  
Bb----------------------------------------------------------|  
Gb----14-------14-14-14----14b------------------------------| 
Db----12-------12-12-12----12b------------------------------| 
Ab-0--------0-----------------------------------------------| 
Db-0--------0-----------------------------------------------| 
 
Verse 1 (Bass only)  
 
Chorus 
eb----------------------------------------------------------|  
Bb----------------------------------------------------------|  
Gb----------------------------------------------------------|(x3) 
Db-------1-1---------1-1---------1-1---------3-3------------| 
Ab-0--0--1-1---0--0--1-1---0--0--1-1---0--0--3-3------------| 
Db-0--0--1-1---0--0--1-1---0--0--1-1---0--0--3-3------------| 
 
eb----------------------------------------------------------|  
Bb----------------------------------------------------------|  
Gb----------------------------------------------------------| 
Db-8---10-10-10---10-10-------------------------------------| 
Ab-8---10-10-10---10-10-------------------------------------| 
Db-8---10-10-10---10-10-------------------------------------| 
 
eb----------------------------------------------------------|  
Bb----------------------------------------------------------|  
Gb----------------------------------------------------------| 
Db-------1-1---------1-1---------1-1---------3-3------------| 
Ab-0--0--1-1---0--0--1-1---0--0--1-1---0--0--3-3------------| 
Db-0--0--1-1---0--0--1-1---0--0--1-1---0--0--3-3------------| 
 
eb----------------------------------------------------------|  
Bb----------------------------------------------------------|  
Gb----------------------------------------------------------| 
Db-------1-1---------1-1---------8-8-8-7--------------------| 
Ab-0--0--1-1---0--0--1-1---0--0--6-6-6-5--------------------| 
Db-0--0--1-1---0--0--1-1---0--0-----------------------------| 
 
Pre-Verse 
eb----------------------------------------------------------------|  
Bb----------------------------------------------------------------|  
Gb----------------------------------------------------------------| 
Db----14-14-14----------------------------------------------------| 
Ab-0--12-12-12------0---5-5-5-5-8-8-8-8-10-10-10-10-12-12-12-12---| 
Db-0----------------0---------------------------------------------| 
 
Verse 2 
eb----------------------------------------------------------|  
Bb----------------------------------------------------------|  
Gb----7--7--7-----------------------------------------------| 
Db----7--7--7---------------random pick scratching----------| 
Ab-5--5--5--5/6\5-------------------------------------------| 
Db----------------------------------------------------------| 
 
Chorus 
eb----------------------------------------------------------|  
Bb----------------------------------------------------------|  
Gb----------------------------------------------------------|(x3) 
Db-------1-1---------1-1---------1-1---------3-3------------| 
Ab-0--0--1-1---0--0--1-1---0--0--1-1---0--0--3-3------------| 
Db-0--0--1-1---0--0--1-1---0--0--1-1---0--0--3-3------------| 
 
eb----------------------------------------------------------|  
Bb----------------------------------------------------------|  
Gb----------------------------------------------------------| 
Db-8---10-10-10---10-10-------------------------------------| 
Ab-8---10-10-10---10-10-------------------------------------| 
Db-8---10-10-10---10-10-------------------------------------| 
 
Solo 
eb----------------------------------------------------|  
Bb----------------------------------------------------|  
Gb----------------------------------------------------|(x3) 
Db-0-0-0-0--3-3-3-3--5-5-5-5--7-7-7-7-----------------| 
Ab----------------------------------------------------| 
Db----------------------------------------------------| 
 
eb----------------------------------------------------|  
Bb----------------------------------------------------|  
Gb----------------------------------------------------| 
Db-10-10-10-10-10-10-10-10--12-12-12-12-12-12-12-12---| 
Ab----------------------------------------------------| 
Db----------------------------------------------------| 
 
eb----------------------------------------------------|  
Bb----------------------------------------------------|  
Gb----------------------------------------------------| 
Db-12-10-----12-10-----12-10-----12-10----------------| 
Ab-------12--------12--------12--------12-------------| 
Db----------------------------------------------------| 
 
eb----------------------------------------------------|  
Bb----------------------------------------------------|  
Gb----------------------------------------------------| 
Db-12-10-----12-10-----12-10-----12-10----------------| 
Ab-------------------------------------12-------------| 
Db----------------------------------------------------| 
 
eb----------------------------------------------------|  
Bb----------------------------------------------------|  
Gb-10h12-12-12-12-12-12-12--14-14-14-14-14-14-14-14---| 
Db----------------------------------------------------| 
Ab----------------------------------------------------| 
Db----------------------------------------------------| 
 
eb----------------------------------------------------|  
Bb-13-13-13-13-13-13-13-13--15-15-15p13-15-15-16p13---|  
Gb----------------------------------------------------| 
Db----------------------------------------------------| 
Ab----------------------------------------------------| 
Db----------------------------------------------------| 
 
eb--------------------------------------------------|  
Bb--------------------------------------------------|  
Gb-14\1----1/14-------------------------------------|(x4) 
Db-12\1----1/12-------------------------------------| 
Ab--------------------------------------------------| 
Db--------------------------------------------------| 
 
eb--------------------------------------------------|  
Bb--------------------------------------------------|  
Gb--------------------------------------------------| 
Db-7-7---7-7---7-7---7-7--10-10--5-5---5-5----------| 
Ab-5-5---5-5---5-5---5-5--8--8---3-3---3-3----------| 
Db--------------------------------------------------| 
 
eb--------------------------------------------------|  
Bb--------------------------------------------------|  
Gb------------------------10-10-10-10-10-10-10-10---| 
Db-7-7---7-7---7-7---7-7--10-10-10-10-10-10-10-10---| 
Ab-5-5---5-5---5-5---5-5--8--8--8--8--8--8--8--8----| 
Db--------------------------------------------------| 
 
eb--------------------------------------------------|  
Bb--------------------------------------------------|  
Gb-12-12-12-12-14-14-14-14--------------------------| 
Db-12-12-12-12-14-14-14-14--------------------------| 
Ab-10-10-10-10-12-12-12-12--------------------------| 
Db--------------------------------------------------| 
 
eb--------------------------------------------------|  
Bb--------------------------------------------------|  
Gb--------------------------------------------------|(x2) 
Db------1--------1-1--3-3---------------------------| 
Ab-0----1----0---1-1--3-3---------------------------| 
Db-0----1----0---1-1--3-3---------------------------| 
 
eb--------------------------------------------------|  
Bb--------------------------------------------------|  
Gb--------------------------------------------------|(x2) 
Db-7-7-7----8-8-8----7-7-7----8-8-8-----10-10-10----| 
Ab-5-5-5----6-6-6----5-5-5----6-6-6-----8--8--8-----| 
Db--------------------------------------------------| 
 
eb--------------------------------------------------|  
Bb--------------------------------------------------|  
Gb--------------------------------------------------|(x3) 
Db-7-7--8-8--7-7--8-8--7-7--8-8--7-7--10-10---------| 
Ab-5-5--6-6--5-5--6-6--5-5--6-6--5-5--8--8----------| 
Db--------------------------------------------------| 
 
eb--------------------------------------------------|  
Bb--------------------------------------------------|  
Gb--------------------------------------------------|(x3) 
Db-7-7--8-8--7-7--8-8--7-7--8-8--7-7--10-10---7-----| 
Ab-5-5--6-6--5-5--6-6--5-5--6-6--5-5--8--8----5-----| 
Db--------------------------------------------------| 
 
Pre-Chorus 
eb--------------------------------------------------|  
Bb--------------------------------------------------|  
Gb--------------------------------------------------| 
Db--------------------------------------------------| 
Ab-3-3----------------------------------------------| 
Db-3-3----------------------------------------------| 
 
Chorus 
eb----------------------------------------------------------|  
Bb----------------------------------------------------------|  
Gb----------------------------------------------------------|(x3) 
Db-------1-1---------1-1---------1-1---------3-3------------| 
Ab-0--0--1-1---0--0--1-1---0--0--1-1---0--0--3-3------------| 
Db-0--0--1-1---0--0--1-1---0--0--1-1---0--0--3-3------------| 
 
eb----------------------------------------------------------|  
Bb----------------------------------------------------------|  
Gb----------------------------------------------------------| 
Db-8--8-8--8--8-8--8--8-8--8-8/10---------------------------| 
Ab-8--8-8--8--8-8--8--8-8--8-8/10---------------------------| 
Db-8--8-8--8--8-8--8--8-8--8-8/10---------------------------| 
 
eb----------------------------------------------------------|  
Bb----------------------------------------------------------|  
Gb----------------------------------------------------------| 
Db-10--10-10--10--10-10--10--10-10--10--10-10---------------| 
Ab-10--10-10--10--10-10--10--10-10--10--10-10---------------| 
Db-10--10-10--10--10-10--10--10-10--10--10-10---------------| 
 
Outro 
eb----------------------------------------------------------|  
Bb----------------------------------------------------------|  
Gb-7-7-7-7-7--5---------------------------------------------| 
Db-7-7-7-7-7--5---------------------------------------------| 
Ab-5-5-5-5-5--3--0-3-0-5-3-0-3------------------------------| 
Db---------------0-3-0-5-3-0-3------------------------------| 
 
eb----------------------------------------------------------|  
Bb----------------------------------------------------------|  
Gb----------------------------------------------------------| 
Db----------------------------------------------------------| 
Ab-0--0--0-0---3let ring------------------------------------| 
Db-0--0--0-0---3--------------------------------------------| 
  p.m......./ 
 

 
~    - vibrato 
b    - bend 
p    - pull off 
h    - hammer on 
p.m. - palm mute 
r-release hand preventing a ring out 
d    - dub-out 
/    -Slide
Tap to rate this tab
# A B C D E F G H I J K L M N O P Q R S T U V W X Y Z