Sick Puppies - This Is War tab

-------------------------------------------------------------------------------
			     THIS IS WAR - Sick Puppies
-------------------------------------------------------------------------------
Tabbed by: PsychQ
Email: q_man_dude@hotmail.com

Note: This is more or less an improved version of a tab I found on here already. 
Just includes the Introduction along with some variations of notes from the other tab.



Tuning: Drop C (CGCFAD)

Intro
D|-----10--------10-------10-------10--------|
A|-------------------------------------------|
F|-------------------------------------------| Repeat 2x
C|-12--------12--------12-------12-----------|
G|-------------------------------------------|
C|-------------------------------------------|

Verse1
D|--------------------------------------------------------------------------|
A|--------------------------------------------------------------------------|
F|--------------------------------------------------------------------------|
C|-0--000--000--000--000--000--000--000--000--000--000--000-----------------|
G|-0--000--000--000--000--000--000--000--000--000--000--000-----------------|
C|-0--000--000--000--000--000--000--000--000--000--000--000-----------------|

Verse2
D|--------------------------------------------------------------------------|
A|--------------------------------------------------------------------------|
F|------------------------------------5-------------------------------------|
C|-0--000--000--000--000--000--003--335-------------------------------------|
G|-0--000--000--000--000--000--003--333--10\--------------------------------|
C|-0--000--000--000--000--000--003--33--------------------------------------|
                    (Lock and load  You're goin' down)

Pre-Chorus
D|--------------------------------------------------------------------------|
A|--------------------------------------------------------------------------|
F|--------------------------------------------------------------------------|
C|-333--111--0-0000000--/888--777--5-5555555--333--111--0000000-------------|
G|-333--111--0-0000000--/888--777--5-5555555--333--111--0000000-------------|
C|-333--111--0-0000000--/888--777--5-5555555--333--111--0000000-------------|
                                                        .......
Chorus
D|-------------------------------------|
A|-------------------------------------|           Ending 1   Ending 2
F|-------------------------------------| Repeat 2x
C|-00000000--33333333--88888888--55555-|           |--1x1--|  |-------|
G|-00000000--33333333--88888888--55555-|           |--1x1--|  |-------|
C|-00000000--33333333--88888888--55555-|           |--1x1--|  |-------|
                                                             (Let's do this!)
Verse3
D|--------------------------------------------------------------------------|
A|--------------------------------------------------------------------------|
F|--------------------------------------------------------------------------|
C|-0--110--110--110--110--110--113--335--110--110--113--335-----------------|
G|-0--110--110--110--110--110--113--335--110--110--113--335-----------------|
C|-0--110--110--110--110--110--113--335--110--110--113--335-----------------|

D|--------------------------------------------------------------------------|
A|--------------------------------------------------------------------------|
F|--------------------------------------------------------------------------|
C|-0--110--110--110---------------------------------------------------------|
G|-0--110--110--110--10\----------------------------------------------------|
C|-0--110--110--110---------------------------------------------------------|(Go!)

Pre-Chorus2
D|--------------------------------------------------------------------------|
A|--------------------------------------------------------------------------|
F|--------------------------------------------------------------------------|
C|-333--111--0-0000000--/888--777--5-5555555--333--111-0000000000-----------|
G|-333--111--0-0000000--/888--777--5-5555555--333--111-0000000000-----------|
C|-333--111--0-0000000--/888--777--5-5555555--333--111-0000000000-----------|
                                                       ..........
Chorus2
D|-------------------------------------|
A|-------------------------------------|           Ending 1   Ending 2
F|-------------------------------------| Repeat 2x
C|-00000000--33333333--88888888--55555-|           |--1x1--|  |-------|
G|-00000000--33333333--88888888--55555-|           |--1x1--|  |-------|
C|-00000000--33333333--88888888--55555-|           |--1x1--|  |-------|
                                                             (Let's do this!)
Bridge
D|--------------------------------------------------------------------------|
A|--------------------------------------------------------------------------|
F|--------------------------------------------------------------------------|
C|-0---------0---------0-3b5br3--0-3b5br3--0---------0---------0-8\--0-8\---|
G|-0-5b6br5--0-5b6br5--0---------0---------0-4b5br4--0-4b5br4--0-8\--0-8\---|
C|-0---------0---------0---------0---------0---------0---------0-8\--0-8\---|

D|-------------------------|
A|-------------------------|
F|-------------------------| Repeat 2x
C|-0--0--3--3--8--8--1--1--|
G|-0--0--3--3--8--8--1--1--|
C|-0--0--3--3--8--8--1--1--|

Solo
D|--------------------------------------------------------------------------|
A|-33333333333333333333333333333--------------------------------------------|
F|--------------------------------------------------------------------------|
C|--------------------------------1x1---------------------------------------|
G|--------------------------------1x1---------------------------------------|
C|--------------------------------1x1---------------------------------------|
  (This is war)
 
Chorus 3
D|--------------------------------------------------------------------------|
A|--------------------------------------------------------------------------|
F|--------------------------------------------------------------------------|
C|-00000000--33333333--11-11-11-11-11-11-11-11--555-555-555-----------------|
G|-00000000--33333333--11-11-11-11-11-11-11-11--555-555-555-----------------|
C|-00000000--33333333--11-11-11-11-11-11-11-11--555-555-555-----------------|

D|--------------------------------------------------------------------------|
A|--------------------------------------------------------------------------|
F|--------------------------------------------------------------------------|
C|-00000000--33333333--88888888--55555-1x1----------------------------------|
G|-00000000--33333333--88888888--55555-1x1----------------------------------|
C|-00000000--33333333--88888888--55555-1x1----------------------------------|

D|--------------------------------------------------------------------------|
A|--------------------------------------------------------------------------|
F|--------------------------------------------------------------------------|
C|-00000000--33333333--88888888--55x55x5------------------------------------|
G|-00000000--33333333--88888888--55x55x5------------------------------------|
C|-00000000--33333333--88888888--55x55x5------------------------------------|

Outro
D|--------------------------------------------------------------------------|
A|--------------------------------------------------------------------------|
F|--------------------------------------------------------------------------|
C|-0-----110-----110-----110-----1111110-----110-----110-----110-----110----|
G|-0/5\--110/5\--110/5\--110/5\--1111110/5\--110/5\--110/5\--110/5\--110/5\-|
C|-0-----110-----110-----110-----1111110-----110-----110-----110-----110----|

D|------------------|
A|------------------|
F|------------------|
C|-110--------------|
G|-110--------------|
C|-110--------------|


************************************
Key:
| .   palm mute
| /   slide up
| \   slide down
| x   Mute note
| b   Bend
| br  Bend release
************************************
Tap to rate this tab
 
# A B C D E F G H I J K L M N O P Q R S T U V W X Y Z