Song name
# A B C D E F G H I J K L M N O P Q R S T U V W X Y Z

Sinch - Identity Theft tab

Sinch
"Identity Theft"
From the new album "Clearing The Channel" 
Tabbed by Joe Costello (jcostello86@gmail.com)

Tuning: Drop-D (D A D G B e)

Symbols used:
h = hammer-on
p = pull-off
. = palm mute
/ = slide up
\ = slide down

Intro: (Clean tone, let all notes ring)
e|----------------------------------|----------------------------------|
B|----------------------------------|----------------------------------|
G|----------------------------------|----------------------------------|
D|----------------------------------|----------------------------------|
A|----------10-10---8-8----7-7-7-7--|----------10-10---8-8----7-7-7-7--|
D|---0-0--0-------0-----0-----------|---8-8--8-------8-----8-----------|

e|----------------------------------|--------------------------------------|
B|----------------------------------|--------------------------------------|
G|----------------------------------|--------------------------------------|
D|---8-8--8-10-10---8-8----7-7-7-7--|---0-0--------------------------------|
A|---8-8--8-------------------------|---0-0--10-10-10--8-8-8--7-7-7-7-7-7--|
D|---8-8--8-------8-----8-----------|---0-0--------------------------------|
P.M.					. .

1st Verse:
e|--------------------------------------|--------------------------------------|
B|--------------------------------------|--------------------------------------|
G|--------------------------------------|--------------------------------------|
D|---0-0--------------------------------|---8-8--------------------------------|
A|---0-0--10-10-10--8-8-8--7-7-7-7-7-7--|---8-8--10-10-10--8-8-8--7-7-7-7-7-7--|
D|---0-0--------------------------------|---8-8--------------------------------|
          "Why am I   lying   to          myself	When everyone else

e|--------------------------------------|--------------------------------------|
B|--------------------------------------|--------------------------------------|
G|--------------------------------------|--------------------------------------|
D|---8-8--------------------------------|---0-0--------------------------------|
A|---8-8--10-10-10--8-8-8--7-7-7-7-7-7--|---0-0--10-10-10--8-8-8--7-7-7-7-7-7--|
D|---8-8--------------------------------|---0-0--------------------------------|
				sees right through me

e|--------------------------------------|--------------------------------------|
B|--------------------------------------|--------------------------------------|
G|--------------------------------------|--------------------------------------|
D|---0-0--------------------------------|---8-8--------------------------------|
A|---0-0--10-10-10--8-8-8--7-7-7-7-7-7--|---8-8--10-10-10--8-8-8--7-7-7-7-7-7--|
D|---0-0--------------------------------|---8-8--------------------------------|
            And all  the   products    they've sold me		I let them

e|--------------------------------------|---------------------------------------|
B|--------------------------------------|---------------------------------------|
G|--------------------------------------|---------------------------------------|
D|---8-8--------------------------------|---0-0---------------------------------|
A|---8-8--10-10-10--8-8-8--7-7-7-7-7-7--|---0-0--10-10-10-12-12-12-12-12-12-12--|
D|---8-8--------------------------------|---0-0---------------------------------|
	mold me			Don't I feel like such a man?

e|--------------------------------------|--------------------------------------|
B|--------------------------------------|--------------------------------------|
G|--------------------------------------|--------------------------------------|
D|---0-0--------------------------------|---8-8--------------------------------|
A|---0-0--10-10-10--8-8-8--7-7-7-7-7-7--|---8-8--10-10-10--8-8-8--7-7-7-7-7-7--|
D|---0-0--------------------------------|---8-8--------------------------------|
       I'll hide my guilt and my regrets           Smoke a thousand cigarettes

e|--------------------------------------|------------------------------|
B|--------------------------------------|------------------------------|
G|--------------------------------------|------------------------------|
D|---8-8--------------------------------|---7--7--7--7--7--7--7--7-----|
A|---8-8--10-10-10--8-8-8--7-7-7-7-7-7--|---7--7--7--7--7--7--7--7-----|
D|---8-8--------------------------------|---7--7--7--7--7--7--7--7-----|
             And  slowly  tear  myself    apart"

Chorus: Riff 1:
e|---------------------------------------------------|
B|---------------------------------------------------|
G|---------------------------------------------------|
D|--12-12-12-12-12-12-12-12-10-10-10-10-10-10-10-10--|
A|--12-12-12-12-12-12-12-12-10-10-10-10-10-10-10-10--|
D|--12-12-12-12-12-12-12-12-10-10-10-10-10-10-10-10--|       
       "Till sudden-	     ly I'm in
e|-----------------------------------|-----------------------------------|
B|-----------------------------------|-----------------------------------|
G|-----------------------------------|-----------------------------------|
D|--7-7-7-7-7-7-7-7--8-8-8-8-8-8-8-8-|-5-5-5-5-5-5-5-5-5-5-5-5-5-5-5-5---|
A|--7-7-7-7-7-7-7-7--8-8-8-8-8-8-8-8-|-5-5-5-5-5-5-5-5-5-5-5-5-5-5-5-5---|
D|--7-7-7-7-7-7-7-7--8-8-8-8-8-8-8-8-|-5-5-5-5-5-5-5-5-5-5-5-5-5-5-5-5---|
      The middle  of the part    I 	love

e|---------------------------------------------------|
B|---------------------------------------------------|
G|---------------------------------------------------|
D|--12-12-12-12-12-12-12-12-10-10-10-10-10-10-10-10--|
A|--12-12-12-12-12-12-12-12-10-10-10-10-10-10-10-10--|
D|--12-12-12-12-12-12-12-12-10-10-10-10-10-10-10-10--|
       There's no rest           for these 

e|-----------------------------------|----------------------------------|
B|-----------------------------------|----------------------------------|
G|-----------------------------------|----------------------------------|
D|--7-7-7-7-7-7-7-7--8-8-8-8-8-8-8-8-|-5-5-5-5-5-5-5-5-5-5-5-5-5-5-5-5--|
A|--7-7-7-7-7-7-7-7--8-8-8-8-8-8-8-8-|-5-5-5-5-5-5-5-5-5-5-5-5-5-5-5-5--|
D|--7-7-7-7-7-7-7-7--8-8-8-8-8-8-8-8-|-5-5-5-5-5-5-5-5-5-5-5-5-5-5-5-5--|  
	feelings	And I have had enough...

e|---------------------------------|
B|---------------------------------|
G|---------------------------------|
D|--3-3-3-3-3-3-3-3-3-3-3-3-3-3-3--|
A|--3-3-3-3-3-3-3-3-3-3-3-3-3-3-3--|
D|--3-3-3-3-3-3-3-3-3-3-3-3-3-3-3--|
     time...             to think"
			-end of Riff 1

Interlude:
e|----------------------------------|----------------------------------|
B|----------------------------------|----------------------------------|
G|----------------------------------|----------------------------------|
D|---0-0---0-0-0---0-0-0-------2----|---0-0---0-0-0---0-0-0-----8--8---|
A|---0-0---0-0-0---0-0-0-----1---1--|---0-0---0-0-0---0-0-0-----8--8---|
D|---0-0---0-0-0---0-0-0---0--------|---0-0---0-0-0---0-0-0---0-8--8---|
P.M. . .   . . .   . . .                . .   . . .   . . .   .

2nd Verse: 
e|--------------------------------------|--------------------------------------|
B|--------------------------------------|--------------------------------------|
G|--------------------------------------|--------------------------------------|
D|---0-0--------------------------------|---8-8--------------------------------|
A|---0-0--10-10-10--8-8-8--7-7-7-7-7-7--|---8-8--10-10-10--8-8-8--7-7-7-7-7-7--|
D|---0-0--------------------------------|---8-8--------------------------------|
      "...several different ways to waste your time and mine...

e|--------------------------------------|--------------------------------------|
B|--------------------------------------|--------------------------------------|
G|--------------------------------------|--------------------------------------|
D|---8-8--------------------------------|---0-0--------------------------------|
A|---8-8--10-10-10--8-8-8--7-7-7-7-7-7--|---0-0--10-10-10--8-8-8--7-7-7-7-7-7--|
D|---8-8--------------------------------|---0-0--------------------------------|
   But anyway		       I can see for miles and miles

e|--------------------------------------|--------------------------------------|
B|--------------------------------------|--------------------------------------|
G|--------------------------------------|--------------------------------------|
D|---0-0--------------------------------|---8-8--------------------------------|
A|---0-0--10-10-10--8-8-8--7-7-7-7-7-7--|---8-8--10-10-10--8-8-8--7-7-7-7-7-7--|
D|---0-0--------------------------------|---8-8--------------------------------|
      Troubled are the few who...	  And I don't even know...

e|--------------------------------------|------------------------------|
B|--------------------------------------|------------------------------|
G|--------------------------------------|------------------------------|
D|---8-8--10-10-10--8-8-8--7-7-7-7-7-7--|---7--7--7--7--7--7--7--7-----|
A|---8-8--------------------------------|---7--7--7--7--7--7--7--7-----|
D|---8-8--------------------------------|---7--7--7--7--7--7--7--7-----|
   But honestly  I'm starting to think that I'm lost"

-Then play Riff 1 for the chorus
-Play the interlude riff (hold the last chord though).

Bridge:
e|-------------------------------|-------------------------------|
B|-------------------------------|-------------------------------|
G|-------------------------------|-------------------------------|
D|-------------------------------|-------7------7------7------7--|
A|-------7------7------7------7--|-----8------8------8------8----|
D|---0-8----0-8----0-8----0-8----|---0------0------0------0------|
  P.M. . .  . . .  . . .  . . .      . . .  . . .  . . .  . . .

e|-------------------------------|-------------------------------|
B|-------------------------------|-------------------------------|
G|-------------------------------|-------------------------------|
D|-------------------------------|-------7------7------7------7--|
A|-------7------7------7------7--|-----8------8------8------8----|
D|---0-8----0-8----0-8----0-8----|---0------0------0------0------|
  P.M. . .  . . .  . . .  . . .      . . .  . . .  . . .  . . .

  (louder, w/wah pedal)
e|-------------------------------|-------------------------------|
B|-------------------------------|-------------------------------|
G|-------------------------------|-------------------------------|
D|-------------------------------|-------7------7------7------7--|
A|-------7------7------7------7--|-----8------8------8------8----|
D|---0-8----0-8----0-8----0-8----|---0------0------0------0------|
  P.M.      .      .      .          .      .      .      .

e|-------------------------------|-----------------------------------|
B|-------------------------------|-----------------------------------|
G|-------------------------------|-----------------------------------|
D|-------------------------------|--7-7-7-7-7-7-7-7-7-7-7-7-7-7-7-7--|
A|-----8-7----8-7----8-7----8-7--|--7-7-7-7-7-7-7-7-7-7-7-7-7-7-7-7--|
D|---0------0------0------0------|--7-7-7-7-7-7-7-7-7-7-7-7-7-7-7-7--|
     .      .      .      .

-Then play Riff 1 for the 3rd chorus 
 *Use an acoustic guitar or clean effect, and let chords ring. Listen to the song and you'll get it.

Outro: (Loud, with distortion)
e|--------------------------------------|--------------------------------------|
B|--------------------------------------|--------------------------------------|
G|--------------------------------------|--------------------------------------|
D|---0-0--------------------------------|---8-8--------------------------------|
A|---0-0--10-10-10--8-8-8--7-7-7-7-7-7--|---8-8--10-10-10--8-8-8--7-7-7-7-7-7--|
D|---0-0--------------------------------|---8-8--------------------------------|
          "So don't tell me			  the same stories

e|--------------------------------------|---------------------------------------|
B|--------------------------------------|---------------------------------------|
G|--------------------------------------|---------------------------------------|
D|---8-8--------------------------------|---0-0---------------------------------|
A|---8-8--10-10-10--8-8-8--7-7-7-7-7-7--|---0-0--10-10-10-12-12-12-12-12-12-12--|
D|---8-8--------------------------------|---0-0---------------------------------|
		"Cause I've heard them 	  all before...

e|--------------------------------------|--------------------------------------|
B|--------------------------------------|--------------------------------------|
G|--------------------------------------|--------------------------------------|
D|---0-0--------------------------------|---8-8--------------------------------|
A|---0-0--10-10-10--8-8-8--7-7-7-7-7-7--|---8-8--10-10-10--8-8-8--7-7-7-7-7-7--|
D|---0-0--------------------------------|---8-8--------------------------------|
	   There's no telling			 What you're selling      

e|--------------------------------------|-------------------------------------|
B|--------------------------------------|-------------------------------------|
G|--------------------------------------|-------------------------------------|
D|---8-8--------------------------------|---0-0-0-0-0-0-0-0-0-0-0-0-0-0-0-0---|
A|---8-8--10-10-10--8-8-8--7-7-7-7-7-7--|---0-0-0-0-0-0-0-0-0-0-0-0-0-0-0-0---|
D|---8-8--------------------------------|---0-0-0-0-0-0-0-0-0-0-0-0-0-0-0-0---|
	   But I don't want it	 anymore...

Ending:
e|---------------------------------------------------|---------------------------------------1-----|
B|---------------------------------------------------|---------------------------------------3-----|
G|---------------------------------------------------|---------------------------------------2-----|
D|--10-10-10-10-10-10-10-10-10-10-10-10-10-10-10-10--|--8------------------------------------0-----|
A|---------------------------------------------------|--8---10-10-10---8-8-8---7-7-7-7-7p0---0-----|
D|---------------------------------------------------|--8------------------------------------0-----|
		"You think you've got it all		But you don't have what I'm looking for"


And that's it. If there's any questions or comments, e-mail me or something.
-Joe
Tap to rate this tab
 
# A B C D E F G H I J K L M N O P Q R S T U V W X Y Z