Song name
# A B C D E F G H I J K L M N O P Q R S T U V W X Y Z

Sinch - Tabula Rasa tab

Sinch
"Tabula Rasa"
From the album "Sinch"
Tabbed by Joe Costello (jcostello86@gmail.com)

Tuning: Drop-D (D A D G B e)

Symbols used:
<7> = harmonic
h = hammer-on
p = pull-off
. = palm mute
/ = slide up
\ = slide down
* = tremolo pick


Bass Intro: (Main riff for bass)
G|-----------------------------------|
D|-----------------------------------|
A|-----------7------7----------------|
D|---7-7---7---7--7---7---7-8-8-8-8--|

Intro: (about 6 seconds in, with wah effect)
e|----------------------------------------------------------------------------|
B|----------------------------------------------------------------------------|
G|----------------------------------------------------------------------------|
D|---------------------------------7----------7-------------------------------|
A|---------------------------------7------7h8---8---7-------------------------|
D|---<7>--------<7>-<7>-<7>-<7>----7-----------------------<7>-<7>-<7>--<7>---|

Verse (With wah):		 
				 (6x)
e|----------------------------------|
B|----------------------------------|
G|---------------------------------*|
D|---7-7-------<7>-----------------*|
A|---7-7---<7>-----<7>-----<7>------|
D|---7-7---------------<7>----------|
  *Let all the harmonics ring, and improvise with them the last couple times through.
   I think he's just playing harmonics the last time he plays this riff.

Chorus (with distortion):
						      (2x)
e|-------------------------------------------------------|
B|-------------------------------------------------------|
G|-------------------------------------------------------|
D|---7-7--7-7---10---9---10----7-7--7-7---10---9---10----|
A|---7-7--7-7---10---9---10----7-7--7-7---10---9---10----|
D|---7-7--7-7---10---9---10----7-7--7-7---10---9---10----|
    "Paranoid"		      "Paralyzed"

e|-------------------------------------------------------|
B|-------------------------------------------------------|
G|----------------------------------------/12-12-12-12--*|
D|---7-7--7-7---10---9---10----7-7--7-7-----------------*|
A|---7-7--7-7---10---9---10----7-7--7-7---/10-10-10-10---|
D|---7-7--7-7---10---9---10----7-7--7-7------------------|

Fill 1: (at 1:11)
e|---------------------|
B|---------------------|
G|---------------------|
D|---------------------|
A|---------------------|
D|-<7>--<7>--<7>--<7>--|

-Play Verse Riff 6x
-Play Chorus Riff 2x

Interlude 1:
e|-----------------------------------------|
B|-----------------------------------------|
G|-----------------------------------------|
D|---7-7--7-7------7-7--7-7------7-7--7-7--|
A|---7-7--7-7------7-7--7-7------7-7--7-7--|
D|---7-7--7-7------7-7--7-7------7-7--7-7--|

Interlude 2:
e|---------------------------------------------|
B|---------------------------------------------|
G|----------------------------------------<7>--|
D|-------7--9--------7--9-------7--9------<7>--|
A|----8-----------8----------8----------8------|
D|---------------------------------------------|
   *Not really sure about the harmonics at the end.

Bridge 1: (w/heavy distortion)
e|------------------------------------------------------------------|
B|------------------------------------------------------------------|
G|-----------------------------------------------5/7--7-7-7-7-7-7---|
D|---0-0--0-0--0-0-0-0--0-0--0-0--3-3--3-3--3-3---------------------|
A|---0-0--0-0--0-0-0-0--0-0--0-0--3-3--3-3--3-3--3/5--5-5-5-5-5-5---|
D|---0-0--0-0--0-0-0-0--0-0--0-0--3-3--3-3--3-3---------------------|
    	"Right 		before my eyes   but its putting out the fire well" 

e|----------------------------------------------------------------|
B|----------------------------------------------------------------|
G|-----------------------------------------------7/9--9-9-9-9-7---|
D|---0-0--0-0--0-0-0-0--0-0--0-0--3-3--3-3--3-3-------------------|
A|---0-0--0-0--0-0-0-0--0-0--0-0--3-3--3-3--3-3--5/7--7-7-7-7-5---|
D|---0-0--0-0--0-0-0-0--0-0--0-0--3-3--3-3--3-3-------------------|
       	"Carnage lights up the sky      but it's just as well"

e|------------------------------------------------------------------|
B|------------------------------------------------------------------|
G|-----------------------------------------------5/7--7-7-7-7-7/9---|
D|---0-0--0-0--0-0-0-0--0-0--0-0--3-3--3-3--3-3---------------------|
A|---0-0--0-0--0-0-0-0--0-0--0-0--3-3--3-3--3-3--3/5--5-5-5-5-5/7---|
D|---0-0--0-0--0-0-0-0--0-0--0-0--3-3--3-3--3-3---------------------|
        "No one's fine			sinking into darkness"

e|------------------------------------------------------------------|
B|------------------------------------------------------------------|
G|-----------------------------------------------5/7--7-7-7-7-7-7---|
D|---0-0--0-0--0-0-0-0--0-0--0-0--3-3--3-3--3-3---------------------|
A|---0-0--0-0--0-0-0-0--0-0--0-0--3-3--3-3--3-3--3/5--5-5-5-5-5-5---|
D|---0-0--0-0--0-0-0-0--0-0--0-0--3-3--3-3--3-3---------------------|
                   "It's no surprise..."

Bridge 2: (Clean tone)
Guitar 1:				     (3x)
e|----------------------------------------------|
B|----------------------------------------------|
G|----------------------------------------------|
D|---7--7-7-7-7-7-7--9-9--10-10--9-9--5-5-5-5---|
A|---7--7-7-7-7-7-7--9-9--10-10--9-9--5-5-5-5---|
D|---7--7-7-7-7-7-7--9-9--10-10--9-9--5-5-5-5---|

Guitar 2: (Distortion)				 (3x)
e|--------------------------------------------------|
B|--------------------------------------------------|
G|--------------------------------------------------|
D|-------------------------------------------5-5-5--|
A|-------------------------------------------5-5-5--|
D|-------------------------------------------5-5-5--|
					     . . .

End of Bridge:
e|-------------------------------------------------------------------|
B|-------------------------------------------------------------------|
G|-------------------------------------------------------------------|
D|---7--7-7-7-7-7-7--9-9--10-10--9-9--12-12-12-12-12-12-12-12-12-12--|
A|---7--7-7-7-7-7-7--9-9--10-10--9-9--12-12-12-12-12-12-12-12-12-12--|
D|---7--7-7-7-7-7-7--9-9--10-10--9-9--12-12-12-12-12-12-12-12-12-12--|

-Play Chorus Riff 2x

Ending: 
Guitar 1:			  (8x)
e|-----------------------------------|
B|-----------------------------------|
G|-----------------------------------|
D|-----------------------------------|
A|-----------7------7----------------|
D|---7-7---7---7--7---7---7-8-8-8-8--|

Guitar 2:
e|---------|
B|---------|
G|---12*---|
D|---------|
A|---10*---|
D|---------|
*Comes in after the 4th time by Guitar 1. Just pick it as fast as you can.

And that's it. Any questions or comments, e-mail me.
-Joe
Tap to rate this tab
 
# A B C D E F G H I J K L M N O P Q R S T U V W X Y Z