Song name
# A B C D E F G H I J K L M N O P Q R S T U V W X Y Z

Sinch - Seven tab

Sinch
"Seven"
From the album "Sinch"
Tabbed by Joe Costello (jcostello86@gmail.com)

Tuning: Drop-D (low to high: D A D G B e)

Symbols Used:
<5> = harmonic
h = hammer-on
p = pull-off
. = palm mute
/ = slide up
\ = slide down

Intro: (Volume turned down, use either a clean tone or chorus effect)
				       (2x)
e|----------------------------------------|
B|----------------------------------------|
G|---------------------------------------*|
D|----7-----------------------------8----*|
A|----------------------------------------|
D|----------------------------------------|
          "Lie awake, completely satisfied
           And let the sweat run through my hair"

						(2x)
e|-------------------------------------------------|
B|-------------------------------------------------|
G|--10---9--------------------------------10------*|
D|---8---7---------------------------------8------*|
A|---8---7---------------------------------8-------|
D|---8---7---------------------------------8-------|
           "Well I haven't felt this way in quite some time
            When I look over you're not there"

Chorus: Riff 1 (loud, with heavy distortion)
								 (2x)
e|------------------------------------------------------------------|
B|------------------------------------------------------------------|
G|------------------------------------------------------------------|
D|--7-7-7-7-7-7-7-7-7-7-7-7-7-7-7-7-8-8-8-8-8-8-8-8-8-8-8-8-8-8-8-8-|
A|--7-7-7-7-7-7-7-7-7-7-7-7-7-7-7-7-8-8-8-8-8-8-8-8-8-8-8-8-8-8-8-8-|
D|--7-7-7-7-7-7-7-7-7-7-7-7-7-7-7-7-8-8-8-8-8-8-8-8-8-8-8-8-8-8-8-8-|

e|------------------------------------------------------------------|
B|------------------------------------------------------------------|
G|----------------------------------------------------7--6--7------*|
D|--7-7-7-7-7-7-7-7-7-7-7-7-7-7-7-7-8-8-8-8-8-8-8-8----------------*|
A|--7-7-7-7-7-7-7-7-7-7-7-7-7-7-7-7-8-8-8-8-8-8-8-8---5--4--5-------|
D|--7-7-7-7-7-7-7-7-7-7-7-7-7-7-7-7-8-8-8-8-8-8-8-8-----------------|

Verse: Riff 2
												     (2x)
e|------------------------------------------------------------------------------------------------------|
B|------------------------------------------------------------------------------------------------------|
G|---------------------------------------------------------------------------------------------7--6--7-*|
D|--7-7-7-7--7-7-7-7--7-7-7-7-8-8-8-8--8-8-8-8--8-8-8-8-7-7-7-7--7-7-7-7--7-7-7-7-8-8-8-8--8-----------*|
A|--7-7-7-7--7-7-7-7--7-7-7-7-8-8-8-8--8-8-8-8--8-8-8-8-7-7-7-7--7-7-7-7--7-7-7-7-8-8-8-8--8---5--4--5--|
D|--7-7-7-7--7-7-7-7--7-7-7-7-8-8-8-8--8-8-8-8--8-8-8-8-7-7-7-7--7-7-7-7--7-7-7-7-8-8-8-8--8------------|
    . . . .  . . . .  . . . . . . . .  . . . .  . . . . . . . .  . . . .  . . . . . . . .

Pre-chorus: (at 1:06)
e|----------------------------------------|
B|----------------------------------------|
G|--5--5--5--5--5--5/7--7--7/9--9--9--9---|
D|----------------------------------------|
A|--3--3--3--3--3--3/5--5--5/7--7--7--7---|
D|----------------------------------------|

2nd Chorus: (Riff 1b)
e|------------------------------------------------------------------|
B|------------------------------------------------------------------|
G|------------------------------------------------------------------|
D|--7-7-7-7-7-7-7-7-7-7-7-7-7-7-7-7-8-8-8-8-8-8-8-8-8-8-8-8-8-8-8-8-|
A|--7-7-7-7-7-7-7-7-7-7-7-7-7-7-7-7-8-8-8-8-8-8-8-8-8-8-8-8-8-8-8-8-|
D|--7-7-7-7-7-7-7-7-7-7-7-7-7-7-7-7-8-8-8-8-8-8-8-8-8-8-8-8-8-8-8-8-|

e|------------------------------------------------------------------|
B|------------------------------------------------------------------|
G|----------------------------------------------------7--6--7-------|
D|--7-7-7-7-7-7-7-7-7-7-7-7-7-7-7-7-8-8-8-8-8-8-8-8-----------------|
A|--7-7-7-7-7-7-7-7-7-7-7-7-7-7-7-7-8-8-8-8-8-8-8-8---5--4--5-------|
D|--7-7-7-7-7-7-7-7-7-7-7-7-7-7-7-7-8-8-8-8-8-8-8-8-----------------|

e|--------------------------------------------------------------------------|
B|--------------------------------------------------------------------------|
G|----------------------------------12-12-12-12-10-10-10-10-9-9-9-9-7-7-7-7-|
D|--7-7-7-7-7-7-7-7-7-7-7-7-7-7-7-7-----------------------------------------|
A|--7-7-7-7-7-7-7-7-7-7-7-7-7-7-7-7-10-10-10-10--8--8--8--8-7-7-7-7-5-5-5-5-|
D|--7-7-7-7-7-7-7-7-7-7-7-7-7-7-7-7-----------------------------------------|

e|------------------------------------------------------------------|
B|------------------------------------------------------------------|
G|----------------------------------------------------7--6--7-------|
D|--7-7-7-7-7-7-7-7-7-7-7-7-7-7-7-7-8-8-8-8-8-8-8-8-----------------|
A|--7-7-7-7-7-7-7-7-7-7-7-7-7-7-7-7-8-8-8-8-8-8-8-8---5--4--5-------|
D|--7-7-7-7-7-7-7-7-7-7-7-7-7-7-7-7-8-8-8-8-8-8-8-8-----------------|

Interlude:
e|-------------------------|-------------------------|-------------------------|
B|--------------------<5>--|--------------------<5>--|--------------------<5>--|
G|--------------------<5>--|--------------------<5>--|--------------------<5>--|
D|---2--0--2-3-2-0---------|---2--0--2-3-2-0---------|---2--0--2-3-2-0---------|
A|---2--0--2-3-2-0---------|---2--0--2-3-2-0---------|---2--0--2-3-2-0---------|
D|---2--0--2-3-2-0---------|---2--0--2-3-2-0---------|---2--0--2-3-2-0---------|

e|-----------------------------------------------------|
B|-----------------------------------------------------|
G|-----------------------------------------------------|
D|---2--0--2-3-2-0----2--0--2-3-2-0---2----------------|
A|---2--0--2-3-2-0----2--0--2-3-2-0---2----------------|
D|---2--0--2-3-2-0----2--0--2-3-2-0---2---(let ring)---|

Bridge: (At 2:01, this might not be exact)
					(4x)
e|--------7---------7----------------7-----|
B|----------10---------10--------------10--|
G|-----9---------9----------10-9-10-------*|
D|--7-------------------------------------*|
A|-----------------------------------------|
D|-----------------------------------------|

Bridge 2: (At 2:16)
e|-----------------------------------------|
B|-----------------------------------------|
G|----9--9--9-9---9---7--7--7/9---9---9----|
D|-----------------------------------------|
A|----7--7--7-7---7---5--5--5/7---7---7----|
D|-----------------------------------------|
    "Feel the tears running down so I guess I lost control"

e|--------------------------------------------------|
B|--------------------------------------------------|
G|---9--9---9----9---12-12-12----7--7--7---7/9--9---|
D|--------------------------------------------------|
A|---7--7---7----7---10-10-10----5--5--5---5/7--7---|
D|--------------------------------------------------|
    "Everybody knows something I ain't ever gonna know"

e|-------------------------------|
B|-------------------------------|
G|----9--9--9-9---9---7--7--7/9--|
D|-------------------------------|
A|----7--7--7-7---7---5--5--5/7--|
D|-------------------------------|
    "And if this wound ever heals maybe I'll sleep again"

e|------------------------------------|
B|------------------------------------|
G|----9--9--9--9---9--9--9--9--9--9---|
D|------------------------------------|
A|----7--7--7--7----------------------|
D|------------------------------------|
    "Somebody please kill me before I am dead"

Then play the Intro.
Chorus: Play Riff 1b

At about 3:14 in, he starts playing these octaves on the A string:
                        Ending:
e|---------------------|-------|
B|---------------------|-------|
G|--2--4--6--7--9--10--|---12--|
D|---------------------|-------|
A|--0--2--4--5--7---8--|---10--|
D|---------------------|-------|
   -It's not played in that order, but I'm too lazy to figure out the correct pattern.
    Improvise with those notes till it feels right. And they do change it here live too.
    End this riff by trem picking the high G octave.

Then play the verse riff without palm muting (2x). They seem pissed off, so play it hard.

Ending:
e|---------------------|
B|---------------------|
G|---------------------|
D|---7-7--7--7-7-7--7--|
A|---7-7--7--7-7-7--7--|
D|---7-7--7--7-7-7--7--|

And that would be it. This song kicks ass, so check it out if you've never heard it.
If there's any questions, comments, or corrections e-mail me. Oh yeah, and rate the tab...

-Joe
Tap to rate this tab
 
# A B C D E F G H I J K L M N O P Q R S T U V W X Y Z