Song name
# A B C D E F G H I J K L M N O P Q R S T U V W X Y Z

Skindred - Babylon tab

Intro:
|---------------------------|
|---11-13-13-13-------------|
|----------------------12---|
|----------------10-10------|
|---------------------------|
|---------------------------|

Pre-verse:
|-------------------------------------------------------------|
|-------------------------------------------------------------|
|-------------------------------------------------------------|
|---0--3--0---6-8-8-8-6-8-6-8-----0--3--1---1-3-3-3-1-3-1-3---|
|---0--3--0---6-8-8-8-6-8-6-8-----0--3--1---1-3-3-3-1-3-1-3---|
|---0--3--0---6-8-8-8-6-8-6-8-----0--3--1---1-3-3-3-1-3-1-3---|

Verse:
|---15-------------------15----------------|
|-------18-------13----------18-------13---|
|------------------------------------------|
|-------------x--------------------x-------|
|-------------x--------------------x-------|
|------------------------------------------|

Pre-chorus:
|---------------------------------------------------|
|---------------------------------------------------|
|---------------------------------------------------|
|---------------------------------------------------|
|---------------------------------------------1-3---|
|---1-0--1-0--1-0--1-0--0-0--1-0-1-0-1-0-1-0--------|

Chorus:
|---------------------|
|---------------------|
|---------------------|
|---0-1-0-3-0-1-0-0---|
|---0-1-0-3-0-1-0-0---|
|---0-1-0-3-0-1-0-0---|

Bridge:
|---------------------------------------|----------------------|
|---------------------------------------|----------------------|
|---------------------------------------|----------------------|
|---0-2-3-0-2-3-0-2---0-2-3-0-2-3-0-2---|---3-2-1-0--4-3-2-1---|
|---0-2-3-0-2-3-0-2---0-2-3-0-2-3-0-2---|---3-2-1-0--4-3-2-1---|
|---0-2-3-0-2-3-0-2---0-2-3-0-2-3-0-2---|---3-2-1-0--4-3-2-1---|
Tap to rate this tab
# A B C D E F G H I J K L M N O P Q R S T U V W X Y Z