Song name
# A B C D E F G H I J K L M N O P Q R S T U V W X Y Z

Skindred - Rat Race tab

Drop C Tuning
Intro
|-------------------|
|-------------------|
|--9----12----------| X2
|--9----12----9-----|
|--7----10----9-----|
|-------------9-----|

Verse

|-------------------|
|-------------------|
|-------------------|X3
|2--2-5-1-3---------|
|2--2-5-1-3---------|
|2--2-5-1-3---------|

Verse Fill

|------------------------------------------|
|------------------------------------------|
|------------------------------------------|
|------------------------------------------|
|------------------------------------------|
|2p0-3p0-5p0-2p0-3p0-5p0-------------------|

Repeat Verse

Repear Verse Fill

Pre-Chorus

|-------------------------------------------------|
|-------------------------------------------------|
|9--9--9---12----12--12---------------------------|X3
|9--9--9---12----12--12----9--9--9--9--9--9-------|
|77777777--10101010101010--9--9--9--9--9--9-------|
|--------------------------99999999-99999999------|
  .. .. .     . .   .   .   .. .. .  .. .. .

Chorus (Both parts X2)

|--------------------------|  
|1212-12-12----------------|
|-9-9--9--9----------------|X3       
|--------------------------|
|--------------------------|
|-----------5p0-2p0-3p0----|

|-------------------|
|-------------------|
|-------------------|
|0-1-2-1-5-4--------|
|0-1-2-1-5-4--------|
|0-1-2-1-5-4--------|
I'm sure that you can all put those parts to the song. Comment please.
Tap to rate this tab
 
# A B C D E F G H I J K L M N O P Q R S T U V W X Y Z