Song name
# A B C D E F G H I J K L M N O P Q R S T U V W X Y Z

Skyhooks - Jukebox In Siberia tab

Jukebox in Siberia

Skyhooks
By Greg Macainsh

Riff
E||----------------------|------------------------|----------------------|
B||----------------------|------------------------|----------------------|
G||-----------------6----|------------------------|----------------------|
D||-------6----8---------|--8----6--8--6----------|----------------------|
A||--8-------------------|----------------8--6----|--6----4---------4----|
E||----------------------|------------------------|------------6---------|


                                                                         
------------------------|----------------------|------------------------|
------------------------|----------------------|------------------------|
------------------------|-----------------6----|------------------------|
------------------------|-------6----8---------|--8----6--8--6----------|
--6----4--6--4-----4----|--8-------------------|----------------8--6----|
----------------6-------|----------------------|------------------------|


                                                                          
----------------------|------------------------|-------------------------|
----------------------|------------------------|-------------------------|
----------------------|------------------------|-------------------------|
----------------------|------------------------|-------------------------|
--6----4---------4----|--6----4--6--4-----4----|--6--4--6--4-------------|
------------6---------|----------------6-------|--------------6--4--6----|


Verse

--6----6----4----6----|--6----6----4----6----|--8----8----6----8----|
----------------------|----------------------|----------------------|
----------------------|----------------------|----------------------|
----------------------|----------------------|----------------------|
----------------------|----------------------|----------------------|
----------------------|----------------------|----------------------|

--11----11----9----11----|
-------------------------|
-------------------------|
-------------------------|
-------------------------|
-------------------------|



Solo

E||-----------------|-----------------------|----------------------|
B||-----------------|-----------------------|----------------------|
G||--8----6----8----|--8----6----8----8--6--|--8----8----6----8----|
D||-----------------|-----------------------|----------------------|
A||-----------------|-----------------------|----------------------|
E||-----------------|-----------------------|----------------------|


                                                                 
-----------------|--9----6--------------|-----------------------|
-----------------|------------9----6----|---------------6--9----|
--8----6---------|----------------------|--8----6----8----------|
------------8----|----------------------|-----------------------|
-----------------|----------------------|-----------------------|
-----------------|----------------------|-----------------------|


                                                       
--6----------------|-------------------------|-------||
-------9--6--9--6--|-------------------------|-------||
-------------------|--8----8--6--8--6--------|-------||
-------------------|-------------------8--6--|--8----||
-------------------|-------------------------|-------||
-------------------|-------------------------|-------||


Tap to rate this tab
 
# A B C D E F G H I J K L M N O P Q R S T U V W X Y Z