Song name
# A B C D E F G H I J K L M N O P Q R S T U V W X Y Z

Skyhooks - Living In The 70s tab

LIVING IN THE 70's
SKYHOOKS


transcribed by chrish@alphalink.com.au

corrections/solo welcome

intro
guitar 1
b--------5>>>>>>>>>>>>>>>>>>>>right up string
guitar 2
g-------9--7--9--7--9--7--9--7--9b11

Riff A
		           F#m
e-----------------------------|
b-----------------------------|
g-----------------------------|
d---------------------4---4---|   X3
a------0--0--2--0-----4---4---|
e---2-----------------2---2---|

				A
e-----------------------------|
b---------------------2---2---|
g---------------------2---2---|
d---------------------2---2---|
a------0--0--2--0-----0---0---|
e---2-------------------------|

Verse with Riff A
I feel a little crazy
I feel a little strange
Like I'm in a pay phone, without any change

etc.etc.

chorus (Riff B)

		   F#m	          B         D
e-----------------------------------------------|
b-2--2--0------------7--7--5------4--4--4>>6>>7-|
g-----------2------------------7--4--4--4>>6>>7-|
d---------------4-----------------4--4--4>>6>>7-|
a---------------4-----------------2--2--2>>4>>5-|
e---------------2-------------------------------|
		    I'm living in the 70's........

	   E
e-----------------------------------------------|
b--7>>8>>9--------------------------------------|
g--7>>8>>9--------------------------------------|
d--7>>8>>9--------------------------------------|
a--5>>6>>7--------------------------------------|
e-----------------------------------------------|

Back to Verse 2 with Riff A

Chorus (Riff B)
Then
e------------------------------------------------|
b------------------------------------------------|
g------------------------------------------------|
d------------0--4------------0--2-----------0--4-|
a------0--2------------0--2-----------0--2-------|
e---2---------------2---------------2------------|

e-----------------6-----------------------------|
b-----------------7-----------------------------|
g-----------------------------------------------|
d------------0----------------------------------|
a------0--2-------------------------------------|
e---2-------------------------------------------|

SOLO:

Verse 3 with Riff A

Chorus (Riff B)

OUTRO:
e------------------------------------------------|
b------------------------------------------------|
g------------------------------------------------|
d---4--2-----------------------------------------|
a---------4--4--2--0--0--------------------------|
e------------------------0--2--------------------|
Tap to rate this tab
# A B C D E F G H I J K L M N O P Q R S T U V W X Y Z