Song name
# A B C D E F G H I J K L M N O P Q R S T U V W X Y Z

Slash - Crucify The Dead tab

Note: These are just he parts that have been released via the 30 second preview that you 
find here: http://www.youtube.com/watch?v=2dvpIog8c6w

-------------------------------------------------------------------------------
              Crucify the Dead feat. Ozzy Osbourne - Slash
-------------------------------------------------------------------------------
Tabbed by: iTim
Email: palman.tim@gmail.com

Tuning: EADGBE

e|---------------------------------------------------------------------------|
B|---------------------------------------------------------------------------|
G|--6--x---------------------------------------------------------------------|
D|--6--x--with multiple-rythym-changes---------------------------------------|
A|--4--x---------------------------------------------------------------------|
E|---------------------------------------------------------------------------|

Solo start:
e|---11h1211-----------------------------------------------------------------|
B|----------14-----12-14-----------------------------------------------------|
G|-------------13--------12-11-9--11-11h13p11\9------------------------------|
D|----------------------------------------------11---------------------------|
A|---------------------------------------------------------------------------|
E|---------------------------------------------------------------------------|

************************************

| /   slide up
| \   slide down
| h   hammer-on
| p   pull-off
| ~   vibrato
| +   harmonic
| x   Mute note
| b   Bend
| pb  Pre-bend
| br  Bend release
| pbr Pre-bend release
| brb Bend release bend

************************************
Tap to rate this tab
# A B C D E F G H I J K L M N O P Q R S T U V W X Y Z