Song name
# A B C D E F G H I J K L M N O P Q R S T U V W X Y Z

Slash - Nothing To Say tab

LEAD BREAK

Ive tabbed the album version of the lead break that slash does after the first chorus. I 
tab the actual solo out soon. This is in D Tuning.

--- KEY ---

h - HAMMER ON
p - PULL OFF
b - BEND
* - PALM MUTE
/ - SLIDE UP
\ - SLIDE DOWN
+ - TREMELO PICK
~ - VIBRATO

d|------------------------------------------------------------------------7-12|
A|----------------------------------------------------------------8-7h8h10----|
F|----------------------------------------------------------8h9h11------------|
C|-------------------------7------7h9--7-----7-9--7h9h10--10------------------|
G|------6h7--6h7h9-6h7h9/10--9h10----10--9-10---10----------------------------|
D|-0-0------------------------------------------------------------------------|
   * *

d|--11h12p11p8h11-8h11p8\7--8h10p8p7--7-----7---------------------------------|
A|------------------------10--------10--8h10--10p8p7\5h8p7--------------------|
F|---------------------------------------------------------8/9~---------------|
C|----------------------------------------------------------------------------|
G|----------------------------------------------------------------------------|
D|----------------------------------------------------------------------------|
Tap to rate this tab
# A B C D E F G H I J K L M N O P Q R S T U V W X Y Z