Song name
# A B C D E F G H I J K L M N O P Q R S T U V W X Y Z

Slash - Far And Away tab

-------------------------------------------------------------------------------
                             FAR AND AWAY - SLASH
-------------------------------------------------------------------------------
Tabbed by: Erevos
E-mail: ostap.oleksyn@gmail.com

Tuning: Eb Ab Db Gb Bb eb


If you want to play this in standard tuning just move everything one fret lower.

Intro 

eb|-----------------------------------------------------------------------|
Bb|---------5----------------5----------------3----------------3----------|
Gb|-------5---5------------5---5------------5---5------------5---5--------|
Db|-----5-------5--------5-------5--------3-------3--------3-------3------| 
Ab|---7-----------7----7-----------5----3-----------3----3-----------3----|
Eb|-8----------------6----------------5----------------4------------------|

eb|------------------------------------------------------|
Bb|---------5----------------5----------------3----------|
Gb|-------5---5------------5---5------------5---5--------|
Db|-----5-------5--------5-------5--------3-------3------| 
Ab|---7-----------7----7-----------5----3-----------3----|
Eb|-8----------------6----------------5---------------4~-|


Verse 1
eb|-----------------------------------------------------------------------|
Bb|---------5----------------5----------------3----------------3----------|
Gb|-------5---5------------5---5------------5---5------------5---5--------|4x
Db|-----5-------5--------5-------5--------3-------3--------3-------3------| 
Ab|---7-----------7----7-----------5----3-----------3----3-----------3----|
Eb|-8----------------6----------------5----------------4------------------|


eb|------------------------------------------------------------------------|
Bb|---------3----------------5---------------------------------------------|
Gb|-------3---3------------7---7---------------5---5-----------------------|
Db|-----3-------3--------5-------5--------5----5h7-5h7---5------5----------|
Ab|---5-----------5----5-----------5------5h7--------------7-5--5h7-5------|
Eb|-6----------------7-----------------8-----------------------------------|

eb|------------------------------------------------------------------------|
Bb|---------3----------------5----------------5h6-5~-----------------------|
Gb|-------3---3------------7---7------------5------------------------------|
Db|-----3-------3--------5-------5--------5--------------------------------|
Ab|---5-----------5----5-----------5----7----------------------------------|
Eb|-6----------------7----------------8------------------------------------|


Chorus

eb|-3~---3~---1~--------3~---3~---1~--------3~---3~---1~-----|
Bb|-3~---3~---1~---555--3~---3~---1~---555--3~---3~---1~-----|
Gb|-4~---3~---2~---555--4~---3~---2~---555--4~---3~---2~-----|
Db|-5~---5~---3~---555--5~---5~---3~---555--5~---5~---3~-----|
Ab|-5~---5~---3~---333--5~---5~---3~---333--5~---5~---3~-----|
Eb|-3~---3~---1~--------3~---3~---1~--------3~---3~---1~-----|

eb|------------------------------------------------------------------------|
Bb|---------3----------------5-----------------------------8----------8----|
Gb|-------3---3------------7---7---------------5----5--7/9---9\7--7/9------|
Db|-----3-------3--------5-------5--------5----5h7-------------------------|
Ab|---5-----------5----5-----------5------5h7------------------------------|
Eb|-6----------------7-----------------8-----------------------------------|


Verse 2
eb|-----------------------------------------------------------------------|
Bb|---------5----------------5----------------3----------------3----------|
Gb|-------5---5------------5---5------------5---5------------5---5--------|4x
Db|-----5-------5--------5-------5--------3-------3--------3-------3------| 
Ab|---7-----------7----7-----------5----3-----------3----3-----------3----|
Eb|-8----------------6----------------5----------------4------------------|

eb|------------------------------------------------------------------------|
Bb|---------3----------------5---------------------8---8/10--8-------------|
Gb|-------3---3------------7---7--------5h7p5--7/9---9---------9\7-5-7-----|
Db|-----3-------3--------5-------5-----------------------------------------|
Ab|---5-----------5----5-----------5---------------------------------------|
Eb|-6----------------7-----------------------------------------------------|

eb|------------------------------------------------------------------------|
Bb|---------3----------------5----------------5h6-5h6-5~-------------------|
Gb|-------3---3------------7---7------------5------------------------------|
Db|-----3-------3--------5-------5--------5--------------------------------|
Ab|---5-----------5----5-----------5----7----------------------------------|
Eb|-6----------------7----------------8------------------------------------|

Chorus

eb|-3~---3~---1~--------3~---3~---1~--------3~---3~---1~-----|
Bb|-3~---3~---1~---555--3~---3~---1~---555--3~---3~---1~-----|
Gb|-4~---3~---2~---555--4~---3~---2~---555--4~---3~---2~-----|
Db|-5~---5~---3~---555--5~---5~---3~---555--5~---5~---3~-----|
Ab|-5~---5~---3~---333--5~---5~---3~---333--5~---5~---3~-----|
Eb|-3~---3~---1~--------3~---3~---1~--------3~---3~---1~-----|

eb|-----------------------------------|
Bb|---------3----------------5--------|
Gb|-------3---3------------7---7------|
Db|-----3-------3--------5-------5----|
Ab|---5-----------5----5-----------5--|
Eb|-6----------------7----------------|

Solo 1

Verse 3
eb|-----------------------------------------------------------------------|
Bb|---------5----------------5----------------3----------------3----------|
Gb|-------5---5------------5---5------------5---5------------5---5--------|4x
Db|-----5-------5--------5-------5--------3-------3--------3-------3------| 
Ab|---7-----------7----7-----------5----3-----------3----3-----------3----|
Eb|-8----------------6----------------5----------------4------------------|

eb|------------------------------------|
Bb|---------3-----------------5--------|
Gb|-------3---3-------------7---7------|
Db|-----3-------3---------5-------5----|
Ab|---5-----------5-----5-----------5--|
Eb|-6-----------------7----------------|


Chorus

eb|-3~---3~---1~--------3~---3~---1~--------3~---3~---1~-----|
Bb|-3~---3~---1~---555--3~---3~---1~---555--3~---3~---1~-----|
Gb|-4~---3~---2~---555--4~---3~---2~---555--4~---3~---2~-----|
Db|-5~---5~---3~---555--5~---5~---3~---555--5~---5~---3~-----|
Ab|-5~---5~---3~---333--5~---5~---3~---333--5~---5~---3~-----|
Eb|-3~---3~---1~--------3~---3~---1~--------3~---3~---1~-----|


Solo 2


************************************

| /   slide up
| \   slide down
| h   hammer-on
| p   pull-off
| ~   vibrato
| +   harmonic
| x   Mute note
| b   Bend
| pb  Pre-bend
| br  Bend release
| pbr Pre-bend release
| brb Bend release bend

************************************
Tap to rate this tab
# A B C D E F G H I J K L M N O P Q R S T U V W X Y Z