Song name
# A B C D E F G H I J K L M N O P Q R S T U V W X Y Z

Slash - Halo tab

-------------------------------------------------------------------------------
                             HALO - Slash
-------------------------------------------------------------------------------
Tabbed by: iTim
Email: 

Tuning: Half Step Down, Drop C#

Note: All chord names are given as if tuning was normal.

I only have the chords for the into for now, will update when the riffs are worked out
Intro Chords:

e|------------------------------------------------|
B|-----------------------------------------4------|
G|-----------------------------------------4------|
D|--7--4--7--4--7--7-7--4--4-4--7--7-7--2--4--4---|
A|--7--4--7--4--7--7-7--4--4-4--7--7-7--2--2--4---|
E|--7--4--7--4--7--6-7--4--3-4--7--6-7--2-----4---|

Main Riff:

e|------------------------------------------------|
B|------------------------------------------------|
G|------------------------------------------------|
D|-4-3---------2-2---------2-1--------------------|
A|-----4-----------4-----------4-------5-5-4------|
E|-------2h3---------2h3---------2h3---------2h3--|

Verse/Solo Chords:
   
e|--3--3---0---------------|-----|
B|--2--2---2---------------|-----|
G|--3--3---2----4----------|-----|
D|--0--0---2----4---4------|--3--|
A|---------0----2---4------|--3--|
E|------------------4------|--3--|


************************************

| /   slide up
| \   slide down
| h   hammer-on
| p   pull-off
| ~   vibrato
| +   harmonic
| x   Mute note
| b   Bend
| pb  Pre-bend
| br  Bend release
| pbr Pre-bend release
| brb Bend release bend

************************************
Tap to rate this tab
# A B C D E F G H I J K L M N O P Q R S T U V W X Y Z