Song name
# A B C D E F G H I J K L M N O P Q R S T U V W X Y Z

Slash - Apocalyptic Love tab

-------------------------------------------------------------------------------
                                Apocalyptic Love Intro Riff - Slash
-------------------------------------------------------------------------------
Tabbed by: RyLH87

This is a moderately fast paced single note riff with an unmistakeable Slash sound and feel.
I've indicated the picking pattern the way I play it to give you an idea.
The riff is also repeated in other parts of the song.
For the intro, the whole thing is played twice, the first time with a wah pedal and the
second time without.
Listen to the song to get the correct rhythm and have fun!

Tuning: 1/2 step down - Eb Ab Db Gb Bb eb


    d u    d   d u d u    d   d   d u   u d u   u d u d u d u d
eb|---------------------------------------------------------------------------|
Bb|---------------------------------------------------------------------------|
Gb|---------------------------------------------------------------------------|
Db|--------------5---5h7--7p5-----8-7p5---5-----------------------------------|
Ab|---5h7--7p5-7---7----------7p5-------7---7p5---4-5-6-7---------------------|
Eb|-0-------------------------------------------7---------5-5-3p0-------------|

    d u    d   d u d u    d   d   d u   u d u   u d u d u
eb|---------------------------------------------------------------------------|
Bb|---------------------------------------------------------------------------|
Gb|---------------------------------------------------------------------------|
Db|--------------5---5h7--7p5-----8-7p5---5-----------------------------------|
Ab|---5h7--7p5-7---7----------7p5-------7---7p5---4-5-6-7---------------------|
Eb|-0-------------------------------------------7-----------------------------|

Repeat

************************************

| h   hammer-on
| p   pull-off
| d   down stroke
| u   up stroke

************************************
Tap to rate this tab
# A B C D E F G H I J K L M N O P Q R S T U V W X Y Z