Song name
# A B C D E F G H I J K L M N O P Q R S T U V W X Y Z

Slash - I Hold On chords

Highlighted       Show chord diagrams
Tabbed by: Eivindur

Tuning: Standard

Intro & verse:
   Am   G    F    C
e|-0----3----1----0----------------------------------------------------------|
B|-1----3----1----1----------------------------------------------------------|
G|-2----0----2----0----------------------------------------------------------|
D|-2----0----3----2----------------------------------------------------------|
A|-0----2----3----3----------------------------------------------------------|
E|------3----1---------------------------------------------------------------|

Bridge:
   Dm   F     Dm   F
e|-1----1-----1----1---------------------------------------------------------|
B|-3----1-----3----1---------------------------------------------------------|
G|-2----2-----2----2---------------------------------------------------------|
D|-0----3-----0----3---------------------------------------------------------|
A|------3----------3---------------------------------------------------------|
E|------1----------1---------------------------------------------------------|

Chorus:                                                End of chorus:
   C    E    Am   G    F                               Fm   C
e|-0----0----0----3----1-------------------------------1----0----------------|
B|-1----0----1----3----1-------------------------------1----1----------------|
G|-0----1----2----0----2-------------------------------1----0----------------|
D|-2----2----2----0----3-------------------------------3----2----------------|
A|-3----2----0----2----3-------------------------------3----3----------------|
E|------0---------3----1-------------------------------1---------------------|

Solo comp:
Start off with the chords for the verse and play the four tacts four times 
before turning over to these. You might as well skip this part if you aren't
playing besides the solo guitar.
   G    G    F    C    G    Am   G    F   Fm
e|-3----3----1----0----3----0----3----1----1---------------------------------|
B|-3----3----1----1----3----1----3----1----1---------------------------------|
G|-0----0----2----0----0----2----0----2----1---------------------------------|
D|-0----0----3----2----0----2----0----3----3---------------------------------|
A|-2----2----3----3----2----0----2----3----3---------------------------------|
E|-3----3----1---------3---------3----1----1---------------------------------|

Outtro:
   F    Fm   C
e|-1----1----0---------------------------------------------------------------|
B|-1----1----1---------------------------------------------------------------|
G|-2----1----0---------------------------------------------------------------|
D|-3----3----2---------------------------------------------------------------|
A|-3----3----3---------------------------------------------------------------|
E|-1----1--------------------------------------------------------------------|

[Verse]
I feel your comfort in my dreams
Unprotected silent screams
A light beyond your shadow beams
Still I don't know what it means

[Bridge]
When seasons change
Then this remain

[Chorus]
I hold on because I won't let go
Even though I know there's solitude to low
I hold on cause I cant' let go
I refuse to let her angel farewell fall (?)
I hold on

[Verse]
And when the darkness turns a day
I won't let you drift away
Conscience fades and some they go
But I hang on cause I know

[Bridge]
When seasons change
Then this remain

[Chorus]
I hold on because I won't let go
Even though I know there's solitude to low
I hold on cause I can't let go
I refuse to let her angel farewell fall (?)
I hold on

[Solo]

[Chorus]
I hold on because I won't let go
Even though I know there's solitude to low
I hold on because I can't let go
I refuse to let her angel farewell fall (?)

Noooo
Noooo

I refuse to let her angel farewell fall (?)

I hold on
I hold on

I refuse to let her angel farewell fall (?)

Ohh, I hold on
Tap to rate this tab
# A B C D E F G H I J K L M N O P Q R S T U V W X Y Z