Song name
# A B C D E F G H I J K L M N O P Q R S T U V W X Y Z

Slash - Were All Gonna Die tab

-----------------------------------------------------------------------------
	         We're All Gonna Die - Slash & Iggy Pop
-----------------------------------------------------------------------------
Tabbed by: Dylan
Email: Hornets54@live.com

Tuning:E A D G B e (Standard)

e|---------------------------------------------------------------------------|
B|---------------------------------------------------------------------------|
G|-----9--9-9-7-9--9-7-7------------------------7-7--------------------------|
D|--2--9--9-9-7-9--9-7-7-5-5-7--7-7--2-5-7--5-5-7-7-7-7----------------------|
A|--2--7--7-7-5-7--7-5-5-5-5-7--7-7--2-5-7--5-5-5-5-7-7----------------------|
E|--0--------------------3-3-5--5-5--0-3-5--3-3-----5-5----------------------|

Sorry about the awful spacing, hopefully you can figure out the rhythm by listening to 
song. I hadn't seen a tab on this sight other than the Guitar Pro one for the solo, so I 
I may as well.
Tap to rate this tab
# A B C D E F G H I J K L M N O P Q R S T U V W X Y Z