Song name
# A B C D E F G H I J K L M N O P Q R S T U V W X Y Z

Slash - Godfather Theme tab

----------------------------------------------------------------------------------
                          GODFATHER SOLO - Slash
----------------------------------------------------------------------------------
Tabbed by: AwesomenessFTW
Email: AwesomenessFTW@rocketmail.com

Tuning: Half Step Down

After many times of listening to the solo, I have tabbed out the Godfather solo,
by ear. And a so-so tutorial that taught me 3 notes of it :P
/=slide down
h=hammer on
~=hold

Slash usually vibratos the hell out of the string on the holds, but I don't recommend it 
you've mastered the actual song.

e|--t10---9-10-t11---10-10-/5---5~~---|
B|------------------------------------|
G|------------------------------------|
D|------------------------------------|     x2
A|------------------------------------|
E|------------------------------------|


e|--t10---9-10-t13---10-9-12-11-9-10-9-5-6-5-7-8-3~~|
B|--------------------------------------------------|
G|--------------------------------------------------|
D|--------------------------------------------------|
A|--------------------------------------------------|
E|--------------------------------------------------|


e|---9-12-11-9-12-9-11-9--------------------------|
B|-9---------------------9-8~~--------------------|
G|------------------------------------------------|
D|------------------------------------------------|
A|------------------------------------------------|
E|------------------------------------------------|


e|---9-12-11-9-12-9-11-9--------------------------------------|
B|-9---------------------9-8-t7---9-12-14-t17---9-12-14-15h16-|
G|------------------------------------------------------------|
D|------------------------------------------------------------|
A|------------------------------------------------------------|
E|------------------------------------------------------------|

e|----------------------------------------------|
B|-9-9-10-9-13-12-9-6-7~~-----------------------|
G|----------------------------------------------|
D|----------------------------------------------|
A|----------------------------------------------|
E|----------------------------------------------|

That's all I know. Hope you enjoy learning this awesome solo!
-AwesomenessFTW
Tap to rate this tab
# A B C D E F G H I J K L M N O P Q R S T U V W X Y Z