Song name
# A B C D E F G H I J K L M N O P Q R S T U V W X Y Z

Slash - Godfather Theme tab




STYLE-3  THE GODFATHER THEME   BY FURKAN ARASLI-FOR MY FATHER HUSEYIN ARASLI-DEMEK 
KI NEYMIS KARDES



e----------------------------------------------------|
B--5--4--5--6--5--5--0--5--4--5--6--5--5--0----------|
G----------------------------------------------------|
D----------------------------------------------------|
A----------------------------------------------------|
E----------------------------------------------------|




e-----------------------------------------------------|
B--5--4--5--8--5--5--4--7--5--1--0--1--5--4--4--0-----|
G-----------------------------------------------------|
D-----------------------------------------------------|
A-----------------------------------------------------|
E-----------------------------------------------------|




e-----------------------------------------------------|
B--0--5--8--7--5--8--5--7--5--1--3--0-----------------|
G-----------------------------------------------------|
D-----------------------------------------------------|
A-----------------------------------------------------|
E-----------------------------------------------------|





e------------------------------------------------------|
B--0--5--8--7--5--8--5--7--5--1--------1--4--8---------|
G--------------------------------2--2------------------|
D------------------------------------------------------|
A------------------------------------------------------|
E------------------------------------------------------|


e-------------------------------------------------------|
B-----1--4--5--0--1--0--3--1--0--1--0--0--0-------------|
G--2------------------------------------------0--0------|
D--------------------------------------------------1--2-|
A-------------------------------------------------------|
E-------------------------------------------------------|
Tap to rate this tab
 
# A B C D E F G H I J K L M N O P Q R S T U V W X Y Z