Song name
# A B C D E F G H I J K L M N O P Q R S T U V W X Y Z

Slightly Stoopid - Devils Door tab

--------------------------------------------------------------------

  Title: Devil's Door
  Artist: Slightly Stoopid
  h= hammer
  p= pull off



  This background is played throughout the entire song:
e:-------------5--5---|
B:---5--5------5--5---|
G:---5--5------5--5---|
D:---5--5------4--4---|
A:---4--4---5--5--5---|
E:5--5--5-------------|




  After one time through, this starts on the second guitar, and loops.
e:--------------------------------------------------------|
B:--------------------------------------------------------|
G:--------------------------------------------------------|
D:--------------------------------------------------------|
A:-0--5--3---0--3--5---3--0--0--5--3--0--5-------------0--|
E:-----------------------------------------2--3--4--4-----|
     Repeat this once, then the next part:




e:---------------------------------------------------------|
B:---------------------------------------------------------|
G:---------------------------------------------------------|
D:------------------------4-4--5--6--7---------------------|
A:-0-5--3--0---3h5p3--0-0----------------------------------|
E:---------------------------------------------------------|
    This entire thing is repeated throughout the song.

Tap to rate this tab
 
# A B C D E F G H I J K L M N O P Q R S T U V W X Y Z