Guitaretab - guitar tabs
Song name
# A B C D E F G H I J K L M N O P Q R S T U V W X Y Z

Slightly Stoopid - Otherside tab

Song: The Otherside
Artist: Slightly Stoopid
Album: Chronchitis

Standard Tuning

intro (palm mute as needed)
                 x3 then
e--------------------|----------------------|
b--------------------|----------------------|
g------9-7-9b~-------|------9-7-9b~-7---7---|
d-777-7--------9p7h9-|-777-7---------979-9--|
a--------------------|----------------------|
E--------------------|----------------------|

Solo

e----------------------------------------|
b----------------------------------------|
g-7/9/7--7/9/7-9-7---79~-97-7----97-7----|
d-------9----------79------9-97~---9--97-|
a----------------------------------------|
E----------------------------------------|
[ Tab from: http://www.guitaretab.com/s/slightly-stoopid/171479.html ]
e----------------|-12-10~-12-10--10-----1210---|
b----------------|-------------12--12-10----12-|
g----------9/7---|-----------------------------|
d-9-7--7-9----97-|-----------------------------|
a-----9----------|-----------------------------|
E----------------|-----------------------------|


Then the "solo ends with this

e-----7h10p7-|
b------------|
g-9/11-------|
d------------|
a------------|
E------------|

The song ends on this

e-------------------|
b-------------------|
g-------------------|
d-77-99-77-99-77-99-|
a-------------------|
E-------------------|

The intro is played with some variation during verses throughout the song...

Listen for timing and it's not too difficult.

Sorry I didn't tab the rhythm guitar for the verses and whatnot.. I'll try to take a 
at that some other time.

I realize this isn't a fully complete tab so if you want to add to it, be my guest


Please rate and/or comment.
Post corrections and comments here or email me at waddupdawg123@yahoo.com
Related for Otherside tab