Song name
# A B C D E F G H I J K L M N O P Q R S T U V W X Y Z

Slightly Stoopid - Mr Music chords

Highlighted       Show chord diagrams
This song is always the same and it's as easy as it gets

   G               C               G               D

e--3-3--3--3--3----3-3--3--3--3----3-3--3--3--3----5-5--5--5--5-----|
B--3-3--3--3--3----5-5--5--5--5----3-3--3--3--3----7-7--7--7--7-----|
G--4-4--4--4--4----5-5--5--5--5----4-4--4--4--4----7-7--7--7--7-----|
D--5-5--5--5--5----5-5--5--5--5----5-5--5--5--5----7-7--7--7--7-----|
A--5-5--5--5--5----3-3--3--3--3----5-5--5--5--5----5-5--5--5--5-----|
E--3-3--3--3--3--------------------3-3--3--3--3---------------------|

play it as many times as the music goes
i'm 99% sure this is correct so enjoy! _,,,/ peace out

matatas

if your not comfortable enough with bars yet, you can use the non bar chords

   G   C   D

e--3---0---2---|
B--3---1---3---|
G--0---0---2---|
D--0---2---0---|
A--2---3-------|
E--3---0-------|
Tap to rate this tab
 
# A B C D E F G H I J K L M N O P Q R S T U V W X Y Z