Song name
# A B C D E F G H I J K L M N O P Q R S T U V W X Y Z

Slightly Stoopid - Collie Man Acoustic tab

This is pretty much the whole song...

e-------3---3-3-3-3--0---0-0---0---0-0-0--0---0-0--0--0-0-0-0-0-0-|
B-------1-P-0-0-0-0--0-H-1-1-H-3-P-1-1-1--1---1-1--1--1-1-1-1-1-1-|
G-------0---0-0-0-0--2---2-2---2---2-2-2--0-H-2-2--0--0-0-0-0-0-0-|
D-------0---0-0-0-0--2---2-2---2---2-2-2--3---3-3--2--2-2-2-2-2-2-|
A-------2---2-2-2-2--0---0-0---0---0-0-0--0---0-0--3--3-3-3-3-3-3-|
E---3-3-3---3-3-3-3--0---0-0---0---0-0-0--0---0-0--0--0-0-0-0-0-0-|

Finger pick (guitar 2)

e----3---3---3------0---0---0------1---1----0--0---0---0--|
B-----3---3----------1---1----------1-------1---1---1-----|
G------0---0----------2---2----------2------0----0---0----|
D-----------------2-------------------------2-------------|
A-------------------------------------------3-------------|
E---3----------------------------1----------0-------------|

                                           -0--------------------|
                                       OR  -1---1-1-0-H-1-P-0----|
                                           -0-----------------0--|
                                           -2--------------------|
                                           -3--------------------|
                                           -0--------------------|

There are a bunch or little solo's and other little ticks but this is the gist of the 
repeat the 1st part and add in the picking whenever.
Tap to rate this tab
# A B C D E F G H I J K L M N O P Q R S T U V W X Y Z