Song name
# A B C D E F G H I J K L M N O P Q R S T U V W X Y Z

Slightly Stoopid - Collie Man tab

-------------------------------------------------------------------------------
			     Collie Man - Slightly Stoopid
-------------------------------------------------------------------------------
this is just a base...might not be right stroke for stroke

Tabbed by: buffalosoldier3i

Tuning: Standard

Chords:

G  Am  F  C
  
INTRO/VERSE/CHORUS


1st Guitar:

    G             Am             F          C              
e|------3-3-----------------------1---1-1----0----------------|
B|------3-3-------1---1-3p1-1-1-1-1---1-1----1---1-1---1------|
G|------0-0-0-0---0h2-2-2---2-2-2-2---2-2----0---0-0-0-0------|
D|----0-----0-0---0h2-2-2---2-2-2-3---3-3----2---2-2-2-2------|
A|--2-2---------------0-----------3---3-3----3---3-3-3-3------|
E|--3-3---------------------------1---1-1----0-------0--------|

(only at the end of the intro/chorus)
|----1---1-1----0----------------|
|----1---1-1----1---1-1---1------|
|----2---2-2----0---0-0-0-0------|
|----3---3-3----2---2-2-2-2------|
|----3---3-3----3---3-3-3-3------|
|----1---1-1----0-------0--------|



2nd Guitar: 

(This is the base arpeggio)

    G         Am        F      C
e|---3--3--3---0--0--0---1--1-------0--0---------------------------------------------|
B|----3--3------1--1------1----------1--1--------------------------------------------|
G|-----0--0------2--2------2----------0--0-------------------------------------------|
D|------------2----------------2-----------------------------------------------------|
A|------------0---------3------3-----------------------------------------------------|
E|--3-------------------1------------------------------------------------------------|

(can also be...)

    G            Am         F       C
e|---3-----3/5--3/5----0--0--0----1--1-------0--0-------------------------------------|
B|----3----3/5--3/5-----1--1-------1----------1--1------------------------------------|
G|-----0-----------------2--2-------2----------0--0-----------------------------------|
D|------------------2-------------------2---------------------------------------------|
A|------------------0----------3--------3---------------------------------------------|
E|--3--------------------------1------------------------------------------------------|
 
 
(OR)

    G         Am        F      C
e|---3--3--3---0--0--0---1--1--------------------------------------------------------|
B|----3--3------1--1------1--------1h3p1---------------------------------------------|
G|-----0--0------2--2------2---------------------------------------------------------|
D|------------2----------------2---------2---0h2p0-----------------------------------|
A|------------0---------3------3-----------------------------------------------------|
E|--3-------------------1------------------------------------------------------------|



VERSE: 1st and 2nd Guitar (above)
G                    Am
And some man live his life 
F                 C
For profits alone 
G              Am
That very same man 
F                    C
He lives his life all alone 



BRIDGE

1st Guitar:
(you can play it higher no prob)
e|--/3-----/5-0----1--0h1p0-0h1-3-1p0----------------------------------------|
B|-----3-1------1----1-------------------------------------------------------|
G|---------------------------------------------------------------------------|
D|---------------------------------------------------------------------------|
A|---------------------------------------------------------------------------|
E|---------------------------------------------------------------------------|

2nd Guitar: (arpeggio)




CHORUS: 1st and 2nd Guitar
G               Am         
Hey mister collie man 
F				 C
Why don't you come round no more 
G	      Am	  
Hey mister collie collie man 
F			       C
Don't you hear me troubled call 
G	     Am
Hey mister collie man
F		          C 
Look i didn't come to disturb
G		  Am	 
You best not be come 'round here 
F			        C
Unless you've got me sensi herb 


| /  slide up
| \  slide down
| h  hammer-on
| p  pull-off
| ~  vibrato
| +  harmonic
| x  Mute note
===============================================================================
Tap to rate this tab
 
# A B C D E F G H I J K L M N O P Q R S T U V W X Y Z