Song name
# A B C D E F G H I J K L M N O P Q R S T U V W X Y Z

Slightly Stoopid - Wiseman tab

Artist: Slightly Stoopd
Song: Wiseman
Tuning: Standard
Tabbed by: the|Franchise {mjkerr@vt.edu}

Ok, so the other tabs were close, but the song really has two guitars.  Both guitars 
playing the same thing throughout most of the song.  E-mail me if you have questions or comments.

Gtr 1
(chords - the guitarist plays mostly the higher notes)

    Em C  G  D
e|--7--8--3--10-|
B|--8--8--3--10-|
G|--9--9--4--11-|
D|--9--10-5--12-|
A|--7--10-5--12-|
E|--x--8--3--10-|

(you can play the open chords if you want to - look up a chord dictionary if you don't know these)

Picking Part (just pick through the chords, but if you can't then here's the full tab)

e|-----------|---------------|-------------|--------------------|
B|--8---8---8|---------------|-------------|--------------------|
G|---9---9---|--9-----9-----9|--4----4----4|----11------11----11|
D|-----------|---10----10----|---5----5----|------12-----12-----|
A|-7--7---7--|---------------|-------------|--------------------|
E|-----------|-8----8-----8--|-3---3----3--|--10------10----10--|

Ending
e|-7-7h10p7--5h7-|
B|-7-7-------5---|
G|---------------|
D|---------------|
A|---------------|
E|---------------|

Gtr 2 - it plays the same thing throughout the song, the picking part is actually 
guitar (unlike the other tabs)

e|---------|------------|----------|------------------------------|
B|---------|------------|----------|------------------------------|
G|---------|------------|----------|------------------------------|
D|------9--|------------|----------|------------------------------|
A|--7-7----|------10-10-|-----5-5--|---------12-12-10-10--9h10p9--|
E|-------0-|--7/8-------|-3-3------|--10-10-----------------------|

Not too hard, and it's an amazing song.  Simple and great, guaranteed to woo the ladies 
jam out with the stoners. - the|Franchise
Tap to rate this tab
 
# A B C D E F G H I J K L M N O P Q R S T U V W X Y Z