Song name
# A B C D E F G H I J K L M N O P Q R S T U V W X Y Z

Slightly Stoopid - Sensimilla tab

Slightly stoopid - sensimilla

this song is for all you sensi smokers out there in san diego, its called sensimilla

-intro-

guitar 1
--------------------------------------------------------------------------
--------------------------------------------------------------------------
--------------------------------------------------------------------------
--------------------------------------------------------------------------
-0-0-4-2-0---------2-0-2-2------------------------------------------------
------------4-2-0---------------------------------------------------------

guitar 2
--------------------------------------------------------------------------
--------------------------------------------------------------------------
-----6-4-------------4-2-4-4----------------------------------------------
-7-7-----7-6-4--2-2-------------------------------------------------------
--------------------------------------------------------------------------
--------------------------------------------------------------------------

-verse-
"you its better to smoke that shit....."

guitar 1
--------------------------------------------------------------------------
--------------------------------------------------------------------------
--------------------------------------------------------------------------
--------------------------------------------------------------------------
-0-0-0-4-2-0---------2-0-2-2----------------------------------------------
--------------4-2-0-------------------------------------------------------

guitar 2
---------------------------------------------------7----------------------
---------------------------------------------------8----------------------
---------------------------------------------------9----------------------
---------------------------------------------------9----------------------
---------------------------------------------------7----------------------
---------------------------------------------------x----------------------
its not palm muting, he jus has his hands over this^note strumming the note
every now and then

thats pretty much it, light one up befor you play this song...

-deANO
Tap to rate this tab
# A B C D E F G H I J K L M N O P Q R S T U V W X Y Z